Oops, an error
Loading. Please wait.

7861 tab

version 1
version 1

Whole song

Interactive

18,598 views 3 this week
6 commentsread comments
1 2 3 4 5
x 3
add to favorites
×
Save as Personal and add changes to this tab that will be seen only by you. Learn more ›
×
You can save this tab as Personal to edit and correct it or add notes. All changes will be seen only by you. Learn more »
launch autoscroll
font size
0
reset
how to read this tab
guitar tuner
edit
Autoscroll
slow
fast
+/-
esc
set tempo
stop
ARTIST: BENEATH THE SKY
ALBUM: WHAT DEMONS DO TO SAINTS
SONG: 7861

Tuning: Drop C (CGCFAD)

I did this out the best I could. I was kind of in a rush. Enjoy!



Intro
|-----------------------------------------------------------------------|
|-----------------------------------------------------------------------|
|-----------------------------------------------------------------------|
|-0000000000----000000000--1--1----0-00-0000----00000000-----0---3---1--|
|-0000000000----000000000--1--1----0-00-0000----00000000-----0---3---1--|
|-0000000000----000000000--1--1----0-00-0000----00000000-----0---3---1--|

|----------------------------------------------------------------------|
|----------------------------------------------------------------------|
|----------------------------------------------------------------------|
|--00000000-----0-00-0000----000000000-----000000000----0----1---3-----|
|--00000000-----0-00-0000----000000000-----000000000----0----1---3-----|
|--00000000-----0-00-0000----000000000-----000000000----0----1---3-----|



Riff 1
|--------------------------------------|
|--------------------------------------|
|--------------------------------------|
|-1000000--1000000--1000000--1030403---|
|-1000000--1000000--1000000--1030403---|
|-1000000--1000000--1000000--1030403---|



Riff 2 / Pre-verse                x2
|-----------------------------------|----------------|
|-----------------------------------|----------------|
|-----------------------------------|----------------|
|-1--0----1--0----1--0----1030403---|----------------|
|-1--0----1--0----1--0----1030403---|--5---8--7-8-10-|
|-1--0----1--0----1--0----1030403---|----------------|



Verse buildup
|--------------------------------------------------------------|
|--------------------------------------------------------------|
|--------------------------------------------------------------|
|-----7---5---------------5---7------8---8-7--------8---8-7----|
|-------------8-------8----------------------8--------------8--|
|-0-0---0---0----00-0---0---0----8-8---8--------8-8---8--------|
|
|--------------------------------------------------------------|
|--------------------------------------------------------------|
|--------------------------------------------------------------|
|--------------------------------------------------------------|
|-0-0------------00-0------------8-8------------8-8------------|
|-0-0------------00-0------------8-8------------8-8------------|

|--------------------------------------------------------|
|--------------------------------------------------------|
|--------------------------------------------------------|
|-5--555-555-555-555---8--8-8-8-8-8-8---7--7-7-7-7-7-7---|
|-5--555-555-555-555---8--8-8-8-8-8-8---7--7-7-7-7-7-7---|
|-5--555-555-555-555---8--8-8-8-8-8-8---7--7-7-7-7-7-7---|
|
|--------------------------------------------------------|
|--------------------------------------------------------|
|--------------------------------------------------------|
|-5--555-555-555-555---8--8-8-8-8-8-8---7--7-7-7-7-7-7---|
|-5--555-555-555-555---8--8-8-8-8-8-8---7--7-7-7-7-7-7---|
|-5--555-555-555-555---8--8-8-8-8-8-8---7--7-7-7-7-7-7---|



Verse 1
|----------------------------------------------------------------|
|----------------------------------------------------------------|
|----------------------------------------------------------------|
|-----7---5------------7---5-----------8---8-7--------8---8-7----|
|-------------8----------------8---------------8--------------8--|
|-0-0---0---0----00-0----0---0-----8-8---8--------8-8---8--------|

|--------------------------------------------------------|
|--------------------------------------------------------|
|--------------------------------------------------------|
|-5--555-555-555-555---8--8-8-8-8-8-8---7--7-7-7-7-7-7---|
|-5--555-555-555-555---8--8-8-8-8-8-8---7--7-7-7-7-7-7---|
|-5--555-555-555-555---8--8-8-8-8-8-8---7--7-7-7-7-7-7---|



Pre-chorus breakdown (x2)
|--------------------------------------------------------|
|--------------------------------------------------------|
|--------------------------------------------------------|
|-0--0-0-0-0-0-0--000-0--0-0-0-0-0-0--000-8--8-8-8-8-8-8-|
|-0--0-0-0-0-0-0--000-0--0-0-0-0-0-0--000-8--8-8-8-8-8-8-|
|-0--0-0-0-0-0-0--000-0--0-0-0-0-0-0--000-8--8-8-8-8-8-8-|

|-----------------------------------------------|
|-----------------------------------------------|
|-----------------------------------------------|
|-888-10--10-10-10-10-10-10-10-10--7--77777777--|
|-888-10--10-10-10-10-10-10-10-10--7--77777777--|
|-888-10--10-10-10-10-10-10-10-10--7--77777777--|



Chorus
|-------------------------------------------------------|
|-------------------------------------------------------|
|-10--9-5--7777-7-7-7-7-77----10--9-5--7777-7-7-7-7-77--|
|--x--x-x--7777-7-7-7-7-77-----x--x-x--7777-7-7-7-7-77--|x3
|--8--7-3--5555-5-5-5-5-55-----8--7-3--5555-5-5-5-5-55--|
|-------------------------------------------------------|

|----------------------------------|
|----------------------------------|
|-10--9--10--9--10--5--7---12-12---|
|--x--x---x--x---x--x--x----x--x---|
|--8--7---8--7---8--3--5---10-10---|
|----------------------------------|



Fill
|-------------------------------------|-------------------------------------|
|-------------------------------------|-------------------------------------|
|-------------------------------------|-------------------------------------|
|------7---5--------------------------|-------------------------------------|
|-0-0----------8---7h8p7-5-7-7-5-3-5--|-------------------------------------|
|-0-0----0---0---0--------------------|-------------------------------------|
|
|-------------------------------------|-------------------------------------|
|-------------------------------------|-------------------------------------|
|-------------------------------------|-------------------------------------|
|-------------------------------------|------7---5--------------------------|
|-------------------------------------|-0-0----------8---7h8p7-5-7-7-5-3-5--|
|-------------------------------------|-0-0----0---0---0--------------------|



Verse 2 (x2)
|-------------------------------------------|
|-------------------------------------------|
|-------------------------------------------|x2
|------7---5--------------------------------|
|-0-0----------8---7h8---7h8---7h8p7---5h7--|
|-0-0----0---0---0-----0-----0-------0------|

|-------------------------------------------------|
|-------------------------------------------------|
|-------------------------------------------------|
|-------------------------------------------------|
|-8-8--7h8---7h8---7h8---7h8---7h8---7h8p7---5h7--|
|-8-8------0-----0-----0-----0-----0-------0------|

|-------------------------------------|
|-------------------------------------|
|-------------------------------------|
|-------------------------------------|
|-10----10---10-8-7---7----8---8-7-5--|
|-10--0----0----------7--0---0--------|



Pre-chorus breakdown (x2)
|--------------------------------------------------------|
|--------------------------------------------------------|
|--------------------------------------------------------|
|-0--0-0-0-0-0-0--000-0--0-0-0-0-0-0--000-8--8-8-8-8-8-8-|
|-0--0-0-0-0-0-0--000-0--0-0-0-0-0-0--000-8--8-8-8-8-8-8-|
|-0--0-0-0-0-0-0--000-0--0-0-0-0-0-0--000-8--8-8-8-8-8-8-|

|-----------------------------------------------|
|-----------------------------------------------|
|-----------------------------------------------|
|-888-10--10-10-10-10-10-10-10-10--7--77777777--|
|-888-10--10-10-10-10-10-10-10-10--7--77777777--|
|-888-10--10-10-10-10-10-10-10-10--7--77777777--|



Chorus
|-------------------------------------------------------|
|-------------------------------------------------------|
|-10--9-5--7777-7-7-7-7-77----10--9-5--7777-7-7-7-7-77--|
|--x--x-x--7777-7-7-7-7-77-----x--x-x--7777-7-7-7-7-77--|x3
|--8--7-3--5555-5-5-5-5-55-----8--7-3--5555-5-5-5-5-55--|
|-------------------------------------------------------|

|----------------------------------|
|----------------------------------|
|-10--9--10--9--10--5--7---12-12---|
|--x--x---x--x---x--x--x----x--x---|
|--8--7---8--7---8--3--5---10-10---|
|----------------------------------|



Buildup
|------------------|------------------|------------------|-----------|
|---------44444444-|---------44444444-|---------44444444-|-----------|
|---------77777777-|---------77777777-|---------77777777-|-----------|
|------------------|------------------|------------------|-----------|
|-0-0-0-0----------|-0-0-0-0----------|-0-0-0-0----------|-0-0-0-0---|
|-0-0-0-0----------|-0-0-0-0----------|-0-0-0-0----------|-0-0-0-0---|
|
|------------------|------------------|------------------|-----------|
|------------------|---------44444444-|------------------|-----------|
|------------------|---------77777777-|------------------|-----------|
|------------------|------------------|------------------|-----------|
|-0-0-0-0----------|-0-0-0-0----------|-0-0-0-0----------|-0-0-0-0---|
|-0-0-0-0----------|-0-0-0-0----------|-0-0-0-0----------|-0-0-0-0---|



Breakdown (x2)
|------------------|------------------|------------------|------------------|
|---------44444444-|---------44444444-|---------44444444-|---------44444444-|
|---------77777777-|---------77777777-|---------77777777-|---------77777777-|
|------------------|------------------|------------------|------------------|
|-0-0-0-0----------|-0-0-0-0----------|-0-0-0-0----------|-0-0-0-0----------|
|-0-0-0-0----------|-0-0-0-0----------|-0-0-0-0----------|-0-0-0-0----------|


End
|------------------------------------|------------------------------------|
|------------------------------------|------------------------------------|
|------------------------------------|------------------------------------|
|------7---5-------------------------|------7---5-------------------------|
|-0-0----------8---7h8p7-5-7-7-5-3-5-|-0-0----------8---7h8p7-5-7-7-5-7-8-|
|-0-0----0---0---0-------------------|-0-0----0---0---0-------------------|

            
            
Suggest correction
Creating personal tab
Creating personal tab
You can edit any tab online and save it as your Personal.

You can edit, replace or remove any tab part or add personal notes – all changes will be seen only by you.

Personal tabs can be accessed anytime from any device, even offline.
Learn more »
Give kudos to tab author, rate the tab!
1 2 3 4 5
comments
print report bad tab
6 comments total. Showing first comments.
0 reply
DeadDamneDDies 10 Dec 02, 2007 02:43 AM

plz can any1 te;; me the bass tabs from 7861??

0 reply
fenderorgibson? 10 Dec 07, 2007 09:33 PM

love this song, tab not bad, you should look up lyrics

0 reply
carrotcake 2,007 Dec 15, 2007 07:04 AM

I might post a bass tab for this sometime, DeadDamneDDies.

guest
You may want to rate the tab now too:
select rating
Wanna post a correction for this tab? Suggest correction