Oops, an error
Loading. Please wait.

Carcel bass

version 1
version 1

Whole song

Interactive

by Bengala
2,651 views 9 this week
1 commentread comment
1 2 3 4 5
3 more votes to show rating
add to favorites
×
Save as Personal and add changes to this tab that will be seen only by you. Learn more ›
×
You can save this tab as Personal to edit and correct it or add notes. All changes will be seen only by you. Learn more »
launch autoscroll
font size
0
reset
guitar tuner
edit
Autoscroll
slow
fast
+/-
esc
set tempo
stop
Difficulty
intro 00:12
---------------|
--5-6-0-3-5-6--| x12 con ritmo de la cancion
---------------|
---------------|
segundo 00:21
-----------------------|
-----------------------|
-7777777777-7-----7----|
-----------7-5-7-5-----|

al terminar lo de arriba
-------------------------------------------------------------------|
-5555-5-55555-5-5--------------------------------------------------|
-----------------5555-5-55555-5-5-77777777777777773333333322222222-|
-------------------------------------------------------------------|

No te voy a bajar una estrella.......
--------------------------------------------------------------------|
-5555-5-55555-5-5---------------------------------------------------|
-----------------5555-5-55555-5-5-77777777777777773333333322222222--| x2
--------------------------------------------------------------------|

Para que ya no me estes diciendo esooooooooo
-----------------------------------------------------------------------------|
-------------------------------------------------------------------777777777-|
-8888888888888888-10101010101010101010101010101010-7777777777777777----------|
-----------------------------------------------------------------------------|

No me digas q no te quise
----------------------------------------------------------------------|
-5555-5-55555-5-5-----------------------------------------------------|
-----------------5555-5-55555-5-5-7777777777777777-33333333-22222222--| x2
----------------------------------------------------------------------|


De lo que has dicho y hecho
-----------------------------------------------------------------------------|
-------------------------------------------------------------------777777777-|
-8888888888888888-10101010101010101010101010101010-7777777777777777----------|
-----------------------------------------------------------------------------|

Puede ser que me ponga a planear
-------------------------------------------|
-55555555-----------33333333---------------| x3
---------333-5/7-5-3--------33-5-3-2-3-2---|
-------------------------------------------|

Puede ser que pueda terminar en la carcel
-3333333333333333-1111111111111111-33333333333333333-6666666666666666-|
----------------------------------------------------------------------|
----------------------------------------------------------------------|
----------------------------------------------------------------------|

Si te vaz
solo de bajo
-----------------------------------|
-----------------------------------|
-77777777777777-7-5----------------|
---------------5-------------------|

No No me digas q no te quise
---------------------------------------------------------|
-55-55-55-55---------------------------------------------|
------------55555555555555-77-77-777777-33333333-2222222-|
---------------------------------------------------------|

--------------------------------------------------------------------|
-5555555555555555---------------------------------------------------|
-----------------5555555555555555-7777777777777777-33333333-2222222-|
--------------------------------------------------------------------|

De lo que has dicho y hecho
-----------------------------------------------------------------------------|
-------------------------------------------------------------------777777777-|
-8888888888888888-10101010101010101010101010101010-7777777777777777----------|
-----------------------------------------------------------------------------|

Puede ser que me ponga a planear
-------------------------------------------|
-55555555-----------33333333---------------| x3
---------333-5/7-5-3--------33-5-3-2-3-2---|
-------------------------------------------|

Puede ser que pueda terminar en la carcel
-3333333333333333-1111111111111111-33333333333333333-6666666666666666-|
----------------------------------------------------------------------|
----------------------------------------------------------------------|
----------------------------------------------------------------------|

Si te vas
Outro
-------------------------------------------------------------------|
-5555-5-55555-5-5--------------------------------------------------|
-----------------5555-5-55555-5-5-77777777777777773333333322222222-|
-------------------------------------------------------------------|

Bueno eso es todo amigos es el primer tab q hago espero q les agrade lo tuve que sacar 
oido bueno disfrutenlo y espero que les sirva
Suggest correction
Creating personal tab
Creating personal tab
You can edit any tab online and save it as your Personal.

You can edit, replace or remove any tab part or add personal notes – all changes will be seen only by you.

Personal tabs can be accessed anytime from any device, even offline.
Learn more »
Give kudos to tab author, rate the tab!
1 2 3 4 5
comments
print report bad tab
1 comment total.
0 reply
rraull 422 Apr 07, 2010 05:47 PM

Esta super mal

guest
Wanna post a correction for this tab? Suggest correction