Oops, an error
Loading. Please wait.

Atlas Hands Tab

version 4
version 4

Whole song

796 views 3 this week
no commentswrite comment
1 2 3 4 5
please rate
add to favorites
launch autoscroll
font size
0
reset
how to read this tab
guitar tuner
Autoscroll
slow
fast
+/-
esc
set tempo
stop
Help us to improve Ultimate-Guitar.com Take our survey!
×
Author
Difficulty
Capo
novice
4th fret
-------------------------------------------------------------------------------
                             ATLAS HANDS - Benjamin Francis Leftwich
-------------------------------------------------------------------------------
Tabbed by: Charisha2

Tuning: standard (EADGBE)

Capo on the 4th fret. It's all in standard tuning. 
I'm pretty sure this is the way Benjamin plays it. Have fun and good luck.

Bm      x24432
Dsus2   xx0230
Gsus2   3x0035

Em      022000
G       320033
D       xx0232
A       x02220

INTRO, BRIDGE AND VERSE:

 |Bm            |Dsus2        |Gsus2         |Gsus2
e|---2-2-----2-2|---0-0----0-0|---5-5-----5-5|---5-5-----5-5|
B|---3-3-----3-3|---3-3----3-3|---3-3-----3-3|---3-3-----3-3|
G|---4-4---4-4-4|---2-2--2-2-2|---0-0---0-0-0|---0-0---0-0-0|
D|---4-4-----4-4|-0----0------|---0-0-----0-0|---0-0-----0-0|
A|-2-----2------|-------------|--------------|--------------|
E|--------------|-------------|-3-----3------|-3-----3------|

CHORUS:

 |Em            |G            |D             |A             |
e|---0-0-----0-0|--3-3-----3-3|---2-2-----2-2|---0-0-----0-0|
B|---0-0-----0-0|--3-3-----3-3|---3-3-----3-3|---2-2-----2-2|
G|---0-0---0-0-0|--0-0---0-0-0|---2-2---2-2-2|---2-2---2-2-2|
D|---2-2-----2-2|--0-0-----0-0|-0-----0------|---2-2-----2--|
A|--------------|-------------|--------------|-0-----0------|
E|-0-----0------|3-----3------|--------------|--------------|

THE CHORD PROGRESSIONS WITH THE LYRICS:

Bm              D               G
Take me to the docks, there's a ship without a name that
Bm              D               G
It is sailing to the middle of the sea
Bm              D               G
The water there is deeper than anything you've ever seen
Bm              D               G
Jump right in and swim until you freeze

Em      G       D       A
I will remember your face
Em      G       D       A
'Cause I am still in love with that place
Em      G       D       A
But when the stars are the only things we share
Em      G       D       A
Will you be there?

Etc. 
Suggest correction
Give kudos to tab author, rate the tab!
1 2 3 4 5
comments
print report bad tab
guest
You may want to rate the tab now too:
select rating
Please do not post tabs as comments. Select "correction" instead!