Oops, an error
Loading. Please wait.

In The Open Tab

4,679 views 6 this week
no commentswrite comment
1 2 3 4 5
x 3
add to favorites
launch autoscroll
font size
0
reset
how to read this tab
guitar tuner
Autoscroll
slow
fast
+/-
esc
set tempo
stop
Help us to improve Ultimate-Guitar.com Take our survey!
×
Author
Tuning
Capo
D A D F# A D
6th fret
Benjamin Francis Leftwich – In The Open
Tabbed by Jasper121

Tuning: D A D G A D
Capo 6th fret  (Live capo on 5th)

Recording:      http://www.youtube.com/watch?v=k0um89qXGdo
Live:           http://www.youtube.com/watch?v=QgUYaorkgKM

Intro/Verse
d|------------------------------------------------------|
A|------0-----0------------0-0--0--0--------------------|
G|------0-----0----0-0-----0-0--0--0--------------------|
D|--2/4-4-4/2-2p0--0-0---2/4-4-4/7-0-0p2--2-------------|
A|--0---0-0---0----2-2-----0-0--0--0—0p2--2-------------|
D|-----------------2-2-----------------0--0-------------|

d|----------------------0--0-0-0-0----------------------|
A|------0-----0---------0--0-0-0-5p0--------------------|
G|------0-----0----0-0--0--0-0-0-0----------------------|
D|--2/4-4-4/2-2p0--0-0—0p4-4-5-4-4----------------------|
A|--0---0-0---0----5-5--5--5-5-5-5----------------------|
D|-----------------5-5--0--0-0-0-0----------------------|

We stayed up waiting for the morning,
beneath the full moon on the snow.
You turned to me before you turned to go.

You said I'm always rushing through the day,
with my thoughts like bullets in my brain.
And I don't need love it only gets in my way.

Chorus
d|-xx---0---0---0---0---------------------------------------|
A|-xx---0---0---0---0---0-0-0---0--0----0-------------------|
G|-xx-0-0-0-0-0-0-0-0---0-0-0---0--0----0-------------------|
D|-xx-0-0-0-0-0-0-0-0---2-2-2/4-4-4/2/0-0-------------------|
A|-xx-2-2-2-2-2-2-2-2---0-0-------------0-------------------|
D|-xx-2-2-2-2-2-2-2-2---------------------------------------|

d|----0---0---0---0----0---0---0---0----------------------|
A|----0---0---0---0----0---0---0---0----------------------|
G|--0-0-0-0-0-0-0-0--0-0-0-0-0-0-0-0----------------------|
D|--0-0-0-0-4-4-0-0--0-0-0-0-0-0-0-0----------------------|
A|--5-5-5-5-5-5-5-5--7-7-7-7-7-7-7-7----------------------|
D|--5-5-5-5-5-5-5-5--7-7-7-7-7-7-7-7----------------------|
    Play x2 then right back to intro


Oh baby are you free now?
Still living for the weekend.
Do you shout into the wind when you're alone.
Oh baby are you stoned still?
Fired up and heavy eyes.
Is your love still like a mission in the night.

Verse II

When you're done with rolling all the dice,
and you've wrapped them up and thrown them to the sky.
Will you walk the river where we use to hide.

repeat Chorus

Break
d|---------------------------------------------------|
A|------0-----0----------0-0--0--0-------------------|
G|------0-----0----0~----0-0--0--0----0--------------|
D|--2/4-4-4/2-2p0--0~----2/4-4-4/7-0--2~-------------|-
A|--0---0-0---0----2~----0-0--0--0—0--2~-------------|
D|-----------------2~-----------------0~-------------|

d|---------------------------------------------------|
A|------0-----0---------0-0-0-0-5-0------------------|
G|------0-----0----0~---0-0-0-0-0-0------------------|
D|--2/4-4-4/2-2p0--0~---4-5-4-4-4-5------------------|-
A|--0---0-0---0----5~---5-5-5-5-5-5----—-------------|
D|-----------------5~--0-----------------------------|


d|-0-0-0-0--0-0-0-0----------------------------------|
A|-0-0-0-0--0-0-0-0--0-0-0-0-0-0-0-0-----------------|
G|-0-0-0-0--2-2-2-2--0-0-0-0-0-0-0-0-----------------|
D|-2-2-2-2--0-0-0-0--0-0-0-0-0-0-0-0-----------------| x4
A|-0-0-0-0-----------5-5-5-5-5-5-5-5-----------------|
D|-------------------5-5-5-5-5-5-5-5-----------------|

Do you really want to run along by, trails of gold and silver.
Don't you want to throw your wishes out into the wild?
Do you really want to wake up to find, you just can't remember.
How you use to be.

repeat chorus and end (repeat the first two parts of the break and end on G)
Suggest correction
Give kudos to tab author, rate the tab!
1 2 3 4 5
comments
print report bad tab
guest
You may want to rate the tab now too:
select rating
Wanna post a correction for this tab? Suggest correction