Oops, an error
Loading. Please wait.

Pictures Tab

version 1
version 1

Interactive

36,983 views 12 this week
3 commentsread comments
1 2 3 4 5
1 last vote to show rating
add to favorites
launch autoscroll
font size
0
reset
how to read this tab
guitar tuner
Autoscroll
slow
fast
+/-
esc
set tempo
stop
Help us to improve Ultimate-Guitar.com Take our survey!
×
Author
Capo
6th fret
Pictures - Benjamin Francis Leftwich
Tuning: Standard
Capo: 6th Fret

I have tried to position the chords amongst the lyrics to reflect the subtly changing
syllables and melody of the lyrics throughout the song. Undoubtedly, the easiest way to
grasp this is to listen and then just play; the rhythm is natural and all you need to 
know is the chords really!

From what I can tell from watching a couple of live performances of this the notes
picked out in the chords are (relative to capo): -

   C                B                Em               D Riff (based on..)
e--------------     ------------     ------------     --------------|
B------3-------     ------3-----     ------3-----     ------3-------|
G----------0---     ----------0-     ----------0-     -----------0--|
D-------------- x 2 ------------ x 2 ---2----2--- x 2 ---0----0-----|
A---3----3-----     ---2----2---     ------------     --------------|
E--------------     ------------     ------------     --------------|

C                 B         Em
If you crash your car into,

     D                    C
Your best friends house,

             B
Would you be quiet as,

Em         D
Words come out of their mouth

-----------------------------------------------

C         B
Stop..... dont do it

Em          D
I have been waiting for it,

C         B               Em                      D
Stop..... I knew it would come

-----------------------------------------------

C             B                    Em
If you find a god next to,

     Dm
Your girlfriends bed,

C           B
Would it be hard to,

Em                    D
Sort out your spinning head

-----------------------------------------------------

C        B                               Em
Stop.... dont say that dear,

          D
That you wanted him here,

C        B                           Em          D
Stop.... dont give him a clear

--------------------------------------------------------

Am     C                       Em                     D
Take a picture of them,

Am     C                       Em                     D
Take a picture of them

---------------------------------------------------------

C           B                         Em
If you are afraid dont be,

           D                                C
I have the whole thing planned,

                   B                     Em
We’ll start in the ocean baby,

            D                     C
And when we find the land,

           B                   Em
We will be thankful to,

D
All of our friends,

C                B              Em
That they didnt leave us,

          D
As we got to the end

--------------------------------------------------------------------

Chorus
e--------------     ------------     ------------     --------------|
B------3-------     ------3-----     ------3-----     ------3-------|
G----------0---     ----------0-     ----------0-     -----------0--|
D-------------- x 2 ------------ x 2 ------------ x 2 --------------|
A---3----3-----     ---0----0---     ------------     ---2----2-----|
E--------------     ------------     ---0----0---     --------------|

Am     C                        Em                   D
Take a picture of them,

Am     C                        Em                   D
Take a picture of them

Am     C                        Em                   D
Take a picture of them,

Am     C                        Em                   D
Take a picture of them

----------------------------------------------------------------------


C      B               Em
If you find your faith in,

     D             C
Your parents god,

         B              Em
DoNt be so quick to,

              D                C
Point out the flaws in it

            B                                         Em
Youve been around and youve seen,

D                              C
The way that things work,

               B                      Em
But you need a compass to,

    D                             End on C
Get around your house.
Suggest correction
Give kudos to tab author, rate the tab!
1 2 3 4 5
comments
print report bad tab
3 comments total.
0 reply
Stil 10 May 17, 2011 02:56 PM

How do you play the D chord rift?

0 reply
brunoaniceto 10 Dec 24, 2012 01:21 PM

All the song in:
e-------------- ------------ ------------ --------------|
B------3------- ------3----- ------3----- ------3-------|
G----------0--- ----------0- ----------0- -----------0--|
D-------------- x 2 ------------ x 2 ---2----2--- x 2 ---0----0-----|
A---3----3----- ---2----2--- ------------ --------------|
E-------------- ------------ ------------ --------------|
Chorus
e-------------- ------------ ------------ --------------|
B------3------- ------3----- ------3----- ------3-------|
G----------0--- ----------0- ----------0- -----------0--|
D-------------- x 2 ------------ x 2 ------------ x 2 --------------|
A---3----3----- ---0----0--- ------------ ---2----2-----|
E-------------- ------------ ---0----0--- --------------|

0 reply
brunoaniceto 10 Dec 24, 2012 01:22 PM


All the song in:
e-------------- ------------ ------------ --------------|
B------3------- ------3----- ------3----- ------3-------|
G----------0--- ----------0- ----------0- -----------0--|
D-------------- x 2 ------------ x 2 ---2----2--- x 2 ---0----0-----|
A---3----3----- ---2----2--- ------------ --------------|
E-------------- ------------ ------------ --------------|
Chorus
e-------------- ------------ ------------ --------------|
B------3------- ------3----- ------3----- ------3-------|
G----------0--- ----------0- ----------0- -----------0--|
D-------------- x 2 ------------ x 2 ------------ x 2 --------------|
A---3----3----- ---0----0--- ------------ ---2----2-----|
E-------------- ------------ ---0----0--- --------------|
[tab/]

guest
You may want to rate the tab now too:
select rating
Wanna post a correction for this tab? Suggest correction