Oops, an error
Loading. Please wait.

Satisfaction bass

version 1
version 1

Whole song

Interactive

11,800 views 6 this week
3 commentsread comments
1 2 3 4 5
x 3
add to favorites
×
Save as Personal and add changes to this tab that will be seen only by you. Learn more ›
×
You can save this tab as Personal to edit and correct it or add notes. All changes will be seen only by you. Learn more »
launch autoscroll
font size
0
reset
guitar tuner
edit
Autoscroll
slow
fast
+/-
esc
set tempo
stop
Author
Benny Benassi-
Satisfaction
Tabbed by : AbnormalPlace

G|-3-------3-3-3--3--3-4-3-4-3||
D|---3--------------3---------||
A|-----1----------------------||
E|----------------------------||

Repeat until: 

G|-3-3--3-3-3--3-3-3--3-3-3--3||
D|----------------------------||
A|----------------------------||
E|----------------------------||

That's it.
It's not a real bass in the song, of course, but i tabbed it out.
And since it seem traditional to say so, this is my first tab. ^^

(Edit: It should be 100% now, sorry about the confusion ><)

            
            
Suggest correction
Creating personal tab
Creating personal tab
You can edit any tab online and save it as your Personal.

You can edit, replace or remove any tab part or add personal notes – all changes will be seen only by you.

Personal tabs can be accessed anytime from any device, even offline.
Learn more »
Give kudos to tab author, rate the tab!
1 2 3 4 5
comments
print report bad tab
3 comments total.
+1 reply
C-C Beatroot 30 Feb 24, 2011 05:39 AM

really good man but I think this is better


G|-3-------4-4-4--3--3-4-3-4-3||
D|---3--------------3---------||
A|-----1----------------------||
E|----------------------------||

Repeat until:

G|-4-4--4-4-4--4-4-4--4-4-4--4||
D|----------------------------||
A|----------------------------||-2-2--2-2--2-2--2-2

0 reply
CMJ Gibson 92 Sep 22, 2011 12:08 PM

actually i think its

G---3-------3-4-4-44-------------
D----3-------3-------------------
A-----1--------------------------
E--------------------------------

G------44--44--44--44-
D--------------------- only once after 1st verse
A---------------------
E---------------------

0 reply
BassGuitarFish 72 Apr 01, 2013 01:38 PM

this is really cool but yeah i agree with C-C Beatroot's correction

guest
You may want to rate the tab now too:
select rating
Wanna post a correction for this tab? Suggest correction