Oops, an error
Loading. Please wait.

All These Things bass

209 views 1 this week
no commentswrite comment
1 2 3 4 5
3 more votes to show rating
add to favorites
×
Save as Personal and add changes to this tab that will be seen only by you. Learn more ›
×
You can save this tab as Personal to edit and correct it or add notes. All changes will be seen only by you. Learn more »
launch autoscroll
font size
0
reset
guitar tuner
edit
Autoscroll
slow
fast
+/-
esc
set tempo
stop
Author
Difficulty
-------------------------------------------------------------------------------
                      ALL THESE THINGS - Benton Falls
-------------------------------------------------------------------------------
Tabbed by: Joe Owens
E-mail: joeowens994@hotmail.com
Tuning: Standard

Awesome song, bass is a bit hard to decipher in parts but this is a foundation.
If you have anything you wanna add just leave a correction.

Intro:
G|----------------|----------------|-----------------------|------------------|
D|----------------|----------------|--------------(9)------|------------------|
A|-7-7---7-7-7-7-7|-9-9---9-9-9-9-9|-11-11---11-11-11-11-11|-11-11---11----9--|
E|----------------|----------------|-----------------------|------------7h9---|

G|----------------|----------------|-----------------------|------------------|
D|----------------|----------------|--------------(9)------|------------------|
A|-7-7---7-7-7-7-7|-9-9---9-9-9-9-9|-11-11---11-11-11-11-11|-11-11---11----9--|
E|----------------|----------------|-----------------------|------------7h9---|

G|----------------|----------------|----------------|------------------|
D|----------------|----------------|----------------|------------------|
A|-7-7-7-7-7-7-7-7|-9-9-9-9-9-9-9-9|----------------|-------------9----|
E|----------------|----------------|-4-4-4-4-4-4-4-4|-4-4-4-4-7h9------|

G|----------------|----------------|------------------------|--------------------|
D|----------------|----------------|------------------------|--------------------|
A|-7-7-7-7-7-7-7-7|-9-9-9-9-9-9-9-9|-11-11-11-11-11-11-11-11|-11-11-11-11-9-9-9-9|
E|----------------|----------------|------------------------|--------------------|


Vocals come in:
G|----------------|----------------|-----------------------|------------------|
D|----------------|----------------|--------------(9)------|------------------| x4
A|-7-7---7-7-7-7-7|-9-9---9-9-9-9-9|-11-11---11-11-11-11-11|-11-11---11----9--|
E|----------------|----------------|-----------------------|------------7h9---|


Change to:
G|----------------|----------------|----------------|----------------|
D|----------------|----------------|----------------|----------------|
A|----------------|----------------|----------------|----------------|
E|-7h9-9-9-9-9-9-9|-9-9-9-9-9-9-9-9|-7h9-9-9-9-9-9-9|-9-9-9-9-7-7-7-7|

G|----------------|----------------|----------------|----------------|
D|----------------|----------------|----------------|----------------|
A|----------------|----------------|----------------|----------------|
E|-4-4-4-4-4-4-4-4|-4-4-4-4-4-4-4-4|-4-4-4-4-4-4-4-4|-4-4-4-4-4-4-4-4|

G|----------------|----------------|----------------|----------------|
D|----------------|----------------|----------------|----------------|
A|----------------|----------------|----------------|----------------|
E|-7h9-9-9-9-9-9-9|-9-9-9-9-9-9-9-9|-7h9-9-9-9-9-9-9|-9-9-9-9-7-7-7-7|

G|----------------|----------------|----------------|----------------|
D|----------------|----------------|----------------|----------------|
A|----------------|----------------|----------------|----------------|
E|-4-4-4-4-4-4-4-4|-4-4-4-4-4-4-4-4|-4-4-4-4-4-4-4-4|-4-4-4-4-4-4-4-4|

G|----------------|----------------|----------------|----------------|
D|----------------|----------------|----------------|----------------|
A|----------------|----------------|----------------|----------------|
E|-7h9-9-9-9-9-9-9|-9-9-9-9-9-9-9-9|-7h9-9-9-9-9-9-9|-9-9-9-9-7-7-7-7|

G|----------------|----------------|----------------|----------------|
D|----------------|----------------|----------------|----------------|
A|----------------|----------------|-6--------------|-4--------------|
E|-4-4-4-4-4-4-4-4|-4-4-4-4-4-4-4-4|----------------|----------------|


Next part "How have I hurt you...":

G|----------------|----------------|--------------------|-----------------|
D|----------------|----------------|--------------------|-----------------|
A|-7--7--7------7-|-7--7\------9---|-11--11--11------11-|-11--11\-----9---|
E|----------------|----------------|--------------------|-----------------|

G|----------------|----------------|--------------------|-----------------|
D|----------------|----------------|--------------------|-----------------|
A|-7--7--7------7-|-7--7\------9---|-11--11--11------11-|-11--11\-----9---|
E|----------------|----------------|--------------------|-----------------|

G|----------------|----------------|--------------------|-----------------|
D|----------------|----------------|--------------------|-----------------|
A|-7--7--7------7-|-7--7\------9---|-11--11--11------11-|-11--11\-----9---|
E|----------------|----------------|--------------------|-----------------|

G|----------------|----------------|--------------------|-----------------------|
D|----------------|----------------|--------------------|--------------------4h7|
A|-7--7--7------7-|-7--7\------9---|-11--11--11------11-|-11--11---------6h7----|
E|----------------|----------------|--------------------|--------7-7-7-7--------|


Next part:
G|----------------|----------------|----------------|----------------|
D|----------------|----------------|-6-6-6-6-6-6-6-6|-6-6-6-6-9-9-9-9|
A|-6-7-7-7-7-7-7-7|-7-7-7-7-7-7-6-7|----------------|----------------|
E|----------------|----------------|----------------|----------------|

G|----------------|----------------|----------------|----------------|
D|----------------|----------------|----------------|----------------|
A|-6-7-7-7-7-7-7-7|-7-7-7-7-7-7-6-4|----------------|----------------|
E|----------------|----------------|-4-4-4-4-4-4-4-4|-4-4-4-4-4-4-4-4|

G|----------------|----------------|----------------|----------------|
D|----------------|----------------|-6-6-6-6-6-6-6-6|-6-6-6-6-9-9-9-9|
A|-6-7-7-7-7-7-7-7|-7-7-7-7-7-7-6-7|----------------|----------------|
E|----------------|----------------|----------------|----------------|

G|----------------|----------------|----------------|----------------|
D|----------------|----------------|----------------|----------------|
A|-6-7-7-7-7-7-7-7|-7-7-7-7-7-7-6-4|----------------|----------------|
E|----------------|----------------|-4-4-4-4-4-4-4-4|-4-4-4-4-4-4-4-4|

G|----------------|----------------|----------------|----------------|
D|----------------|----------------|----------------|----------------|
A|----------------|----------------|-6-6-6-6-6-6-6-6|-6-6-6-6-6-6-6-6|
E|-4-4-4-4-4-4-4-4|-4-4-4-4-4-4-4-4|----------------|----------------|

G|----------------|----------------|----------------|----------------|
D|----------------|----------------|----------------|----------------|
A|-7-7-7-7-7-7-7-7|-7-7-7-7-7-7-7-7|----------------|----------------|
E|----------------|----------------|-4-4-4-4-4-4-4-4|-4-4-4-4-4-4-4-4|


Guitar by itself for a bar, then:

G|----------------|----------------|----------------|----------------|
D|----------------|----------------|----------------|----------------|
A|-4-4-4-4-4-4-4-4|-4-4-4-4-4-4-4-4|-2-2-2-2-2-2-2-2|-2-2-2-2-2-2-2-2|
E|----------------|----------------|----------------|----------------|

G|----------------|------------|
D|----------------|---------7\-| This bar is shorter, like 3/4 timing, listen carefully 
when playing
A|-0-0-0-0-0-0-0-0|-0-0-0-0----|
E|----------------|------------|

G|----------------|----------------|----------------|----------------|
D|----------------|----------------|----------------|----------------|
A|-4-4-4-4-4-4-4-4|-4-4-4-4-4-4-4-4|-2-2-2-2-2-2-2-2|-2-2-2-2-2-2-2-2|
E|----------------|----------------|----------------|----------------|

G|----------------|------------|
D|----------------|---------7\-| Again, shorter.
A|-0-0-0-0-0-0-0-0|-0-0-0-0----|
E|----------------|------------|

G|----------------|----------------|------------------------|------------------------|
D|----------------|----------------|------------------------|------------------------|
A|-4-4-4-4-4-4-4-4|-4-4-4-4-4-4-4-4|\14-14-14-14-14-14-14-14|-14-14-14-14-14-14-14-14|
E|----------------|----------------|------------------------|------------------------|

G|------------------------|-----------------|
D|------------------------|-----------------| Again, shorter.
A|-12-12-12-12-12-12-12-12|-12-12-12-12-12\-|
E|------------------------|-----------------|

G|----------------|----------------|----------------|----------------|
D|----------------|----------------|----------------|----------------|
A|-4-4-4-4-4-4-4-4|-4-4-4-4-4-4-4-4|-2-2-2-2-2-2-2-2|-2-2-2-2-2-2-2-2|
E|----------------|----------------|----------------|----------------|

G|----------------|------------|
D|----------------|---------7\-| Again, shorter.
A|-0-0-0-0-0-0-0-0|-0-0-0-0----|
E|----------------|------------|

G|----------------|----------------|----------------|----------------|
D|----------------|----------------|----------------|----------------|
A|-4-4-4-4-4-4-4-4|-4-4-4-4-4-4-4-4|-2-2-2-2-2-2-2-2|-2-2-2-2-2-2-2-2|
E|----------------|----------------|----------------|----------------|

G|----------------|------------|----------------|
D|----------------|---------7\-|----------------|
A|-0-0-0-0-0-0-0-0|-0-0-0-0----|-4\-------------|
E|----------------|------------|----------------|


There's a few bars of guitar and drums, then bass comes in:

G|----------------|----------------|----------------|----------------|
D|----------------|----------------|----------------|----------------|
A|4---------------|6-------7-------|4-------7-------|----------------|
E|----------------|----------------|----------------|2---4---5---4---|

G|----------------|----------------|----------------|----------------|
D|----------------|----------------|----------------|----------------|
A|-4--------------|-6-------7------|-4-------7------|----------------|
E|----------------|----------------|----------------|2222444455554444|


Last bit:
G|----------------|----------------|----------------|----------------|
D|----------------|----------------|----------------|----------------|
A|-4-4-4-4-4-4-4-4|-4-4-4-4-4-4-4-4|-2-2-2-2-2-2-2-2|-2-------0-2-0-2|
E|----------------|----------------|----------------|---2-4-2--------|

G|----------------|----------------|----------------|----------------|
D|----------------|----------------|----------------|----------------|
A|-0-0-0-0-0-0-0-0|----------------|----------------|----------------|
E|----------------|-4-4-4-4-4-4-4-4|-2-2-2-2-2-2-2-2|-4-4-4-4-4-4-4-4|

G|----------------|----------------|----------------|----------------|
D|----------------|----------------|----------------|----------------|
A|-4-4-4-4-4-4-4-4|-4-4-4-4-4-4-4-4|-2-2-2-2-2-2-2-2|-2-------0-2-0-2|
E|----------------|----------------|----------------|---2-4-2--------|

G|----------------|----------------|----------------|----------------|
D|----------------|----------------|-4-4-4-4-6-6-6-6|-7-7-7-7-7-7-6-6|
A|-0-0-0-0-0-0-0-0|-0-0-0-0-0-0-0-0|----------------|----------------|
E|----------------|----------------|----------------|----------------|

G|----------------|----------------|----------------|----------------|
D|----------------|----------------|----------------|----------------|
A|-4-4-4-4-4-4-4-4|-4-4-4-4-4-4-4-4|-2-2-2-2-2-2-2-2|-2-------0-2-0-2|
E|----------------|----------------|----------------|---2-4-2--------|

G|----------------|----------------|----------------|----------------|
D|----------------|----------------|----------------|----------------|
A|-0-0-0-0-0-0-0-0|----------------|----------------|----------------|
E|----------------|-4-4-4-4-4-4-4-4|-2-2-2-2-2-2-2-2|-4-4-4-4-4-4-4-4|

G|----------------|----------------|----------------|----------------|
D|----------------|----------------|----------------|----------------|
A|-4-4-4-4-4-4-4-4|-4-4-4-4-4-4-4-4|-2-2-2-2-2-2-2-2|-2-------0-2-0-2|
E|----------------|----------------|----------------|---2-4-2--------|

G|----------------|----------------|----------------|----------------|
D|----------------|----------------|-4-4-4-4-6-6-6-6|-7-7-7-7-7-7-6-6|
A|-0-0-0-0-0-0-0-0|-0-0-0-0-0-0-0-0|----------------|----------------|
E|----------------|----------------|----------------|----------------|

End on:
G|----------------|
D|----------------|
A|-4--------------|
E|----------------|

            
            
Suggest correction
Creating personal tab
Creating personal tab
You can edit any tab online and save it as your Personal.

You can edit, replace or remove any tab part or add personal notes – all changes will be seen only by you.

Personal tabs can be accessed anytime from any device, even offline.
Learn more »
Give kudos to tab author, rate the tab!
1 2 3 4 5
comments
print report bad tab
guest
You may want to rate the tab now too:
select rating
Wanna post a correction for this tab? Suggest correction