Oops, an error
Loading. Please wait.

Its Your Time Bass Tab

10 views 1 this week
no commentswrite comment
1 2 3 4 5
3 more votes to show rating
add to favorites
launch autoscroll
font size
0
reset
guitar tuner
Autoscroll
slow
fast
+/-
esc
set tempo
stop
Help us to improve Ultimate-Guitar.com Take our survey!
×
Author
Difficulty
novice
Tabbed by: 6METAL6BASSIST6
E-mail: petergriffinav@gmail.com

Tuning: EADG

G|----------------------------------------------------------------|
D|----------------------------------------------------------------|
A|----------------------------------------------------------------|
E|----------------------------------------------------------------|

G|----------------------------------------------------------------|
D|7-----------7---7-----------7---7-----------7---7---------------|
A|------------------------------------------------------------5-/-|
E|----------------------------------------------------------------|

0:11

G|----------------------------------------------------------------|
D|7-----------7---7---------------7-----------7---7---------------|
A|----------------------------------------------------------------|
E|----------------------------------------------------------------|

G|----------------------------------------------------------------|
D|----------------------------------------------------------------|
A|5-----------7-------------------5-----------7-------------------|
E|----------------------------------------------------------------|

G|----------------------------------------------------------------|
D|7-----------7---7-----------7---7-----------7---7---------------|
A|----------------------------------------------------------------|
E|----------------------------------------------------------------|

G|----------------------------------------------------------------|
D|----------------------------------------------------------------|
A|5-----------7-------------------5-----------7-------------------|
E|----------------------------------------------------------------|

0:33

G|----------------------------------------------------------------|
D|--------------------8---8---------------------------8---8-------|
A|8-------8-------8---------------8-------8-------8---------------|
E|----------------------------------------------------------------|

G|----------------------------------------------------------------|
D|--------------------7---7---------------------------------------|
A|5-------5-------5---------------5-------5-------5---7---7-------|
E|----------------------------------------------------------------|

G|--------------------------------|
D|------------------------2---/---|
A|7-------------------------------|
E|--------------------------------|

0:46

G|----------------------------------------------------------------|
D|7-----------7---7-----------7---7-----------7---7---------------|
A|----------------------------------------------------------------|
E|----------------------------------------------------------------|

G|----------------------------------------------------------------|
D|--------------------------------7-----------------------2---/---|
A|5-----------7---------------------------------------------------|
E|----------------------------------------------------------------|

0:57

G|----------------------------------------------------------------|
D|7-----------7---7-----------7---7-----------7---7---------------|
A|----------------------------------------------------------------|
E|----------------------------------------------------------------|

G|----------------------------------------------------------------|
D|----------------------------------------------------------------|
A|5-----------7-------------------5-----------7-------------------|
E|----------------------------------------------------------------|

G|----------------------------------------------------------------|
D|7-----------7---7-----------7---7-----------7---7-----------7---|
A|----------------------------------------------------------------|
E|----------------------------------------------------------------|

G|----------------------------------------------------------------|
D|----------------------------------------------------------------|
A|5-----------7-------------------5-----------7---------------7---|
E|----------------------------------------------------------------|

1:18

G|----------------------------------------------------------------|
D|--------------------8---8---------------------------8---8-------|
A|8-------8-------8---------------8-------8-------8---------------|
E|----------------------------------------------------------------|

G|----------------------------------------------------------------|
D|--------------------7---7---------------------------------------|
A|5-------5-------5---------------5-------5-------5---7---7-------|
E|----------------------------------------------------------------|

G|--------------------------------|
D|------------------------2---/---|
A|7-------------------------------|
E|--------------------------------|

1:31

G|----------------------------------------------------------------|
D|7-----------7---7-----------7---7-----------7---7---------------| x3
A|----------------------------------------------------------------|
E|----------------------------------------------------------------|

G|----------------------------------------------------------------|
D|--------------------------------7-----------------------2---/---|
A|5-----------7---------------------------------------------------|
E|----------------------------------------------------------------|

1:54

G|----------------------------------------------------------------|
D|7-----------7---7-----------7---7-----------7---7---------------|
A|----------------------------------------------------------------|
E|----------------------------------------------------------------|

G|----------------------------------------------------------------|
D|7-----------7---7-----------7---7-----------7---7-----------7---| until fadeout.
A|----------------------------------------------------------------|
E|----------------------------------------------------------------|
Suggest correction
Give kudos to tab author, rate the tab!
1 2 3 4 5
comments
print report bad tab
guest
You may want to rate the tab now too:
select rating
Wanna post a correction for this tab? Suggest correction