Oops, an error
Loading. Please wait.

Look At Me Bass Tab

4 views 1 this week
no commentswrite comment
1 2 3 4 5
3 more votes to show rating
add to favorites
launch autoscroll
font size
0
reset
guitar tuner
Autoscroll
slow
fast
+/-
esc
set tempo
stop
Help us to improve Ultimate-Guitar.com Take our survey!
×
Author
Difficulty
novice
Tabbed by: 6METAL6BASSIST6
E-mail: petergriffinav@gmail.com

Tuning: EADG

G|------------------------------------------------------------------------------------------------|
D|------------------------------------------------------------------------------------------------|
A|------------------------------------------------------------------------------------------------|
E|0-----------------------------------------------------------------------------------------------|

G|----------------------------------------------------------------|
D|----------------------------------------------------------------|
A|--------------------------------------------------------2-------|
E|0-----------------------------------------------5---------------|

0:10

G|------------------------------------------------------------------------------------------------|
D|------------------------------------------------------------------------------------------------|
A|--------------------------------------------2---------------------------2-----------------------|
E|0-----------------------------------------------0-----------------------------------------------|

G|------------------------------------------------------------------------------------------------|
D|------------------------------------------------------------------------------------------------|
A|3-----------------------2-----------------------3-----------------------2-----------------------|
E|------------------------------------------------------------------------------------------------|

G|------------------------|
D|------------------------|
A|3-------------------5---|
E|------------------------|

G|------------------------------------------------------------------------------------------------|
D|------------------------------------------------------------------------------------------------|
A|7-----------------------7-----------------------7-----------------------7-----------------------|
E|------------------------------------------------------------------------------------------------|

0:30

G|9-----9-----9-----9-----9-----9-----7-----7-----7-----7-----7-----7-----|
D|------------------------------------------------------------------------|
A|------------------------------------------------------------------------|
E|------------------------------------------------------------------------|

G|------------------------------------------------------------------------------|
D|10----10----10----10----10----9-----7-----7-----7-----------------------------|
A|------------------------------------------------------------------------------|
E|------------------------------------------------------5-------------------5---|

G|------------------------------------------------------------------------------------------------|
D|------------------------------------------------------------------------------------------------|
A|------------------------------------------------------------------------------------------------|
E|0-----------------------------------------------------------------------------------------------|

G|----------------------------------------------------------------|
D|----------------------------------------------------------------|
A|--------------------------------------------------------2-------|
E|0-----------------------------------------------5---------------|

0:53

G|------------------------------------------------------------------------------------------------|
D|------------------------------------------------------------------------------------------------|
A|--------------------------------------------2---------------------------2-----------------------|
E|0-----------------------------------------------0-----------------------------------------------|

G|------------------------------------------------------------------------------------------------|
D|------------------------------------------------------------------------------------------------|
A|3-----------------------2-----------------------3-----------------------2-----------------------|
E|------------------------------------------------------------------------------------------------|

G|------------------------|
D|------------------------|
A|3-------------------5---|
E|------------------------|

G|------------------------------------------------------------------------------------------------|
D|------------------------------------------------------------------------------------------------|
A|7-----------------------7-----------------------7-----------------------7-----------------------|
E|------------------------------------------------------------------------------------------------|

1:13

G|9-----9-----9-----9-----9-----9-----7-----7-----7-----7-----7-----7-----|
D|------------------------------------------------------------------------|
A|------------------------------------------------------------------------|
E|------------------------------------------------------------------------|

G|------------------------------------------------------------------------------|
D|10----10----10----10----10----9-----7-----7-----7-----------------------------|
A|------------------------------------------------------------------------------|
E|------------------------------------------------------5-----------------------|

1:27

G|------------------------------------------------------------------------------------------------|
D|------------------------------------------------------------------------------------------------|
A|------------------------6-----------------------5-----------------------4-----------------------|
E|0-----------------------------------------------------------------------------------------------|

G|------------------------------------------------------------------------------------------------|
D|------------------------------------------------------------------------------------------------|
A|3-----------------------2-----------------------3-----------------------------------------------|
E|------------------------------------------------------------------------5-----------------------|

G|------------------------------------------------------------------------------------------------|
D|------------------------------------------------------------------------------------------------|
A|------------------------------------------------------------------------------------------------|
E|0-----------------------------------------------------------------------------------------------|

G|----------------------------------------------------------------|
D|----------------------------------------------------------------|
A|--------------------------------------------------------2-------|
E|0-----------------------------------------------5---------------|

1:50

G|------------------------------------------------------------------------------------------------|
D|------------------------------------------------------------------------------------------------|
A|--------------------------------------------2---------------------------2-----------------------|
E|0-----------------------------------------------0-----------------------------------------------|

G|------------------------------------------------------------------------------------------------|
D|------------------------------------------------------------------------------------------------|
A|3-----------------------2-----------------------3-----------------------2-----------------------|
E|------------------------------------------------------------------------------------------------|

G|------------------------|
D|------------------------|
A|3-------------------5---|
E|------------------------|

G|------------------------------------------------------------------------------------------------|
D|------------------------------------------------------------------------------------------------|
A|7-----------------------7-----------------------7-----------------------7-----------------------|
E|------------------------------------------------------------------------------------------------|

2:10

G|9-----9-----9-----9-----9-----9-----7-----7-----7-----7-----7-----7-----|
D|------------------------------------------------------------------------|
A|------------------------------------------------------------------------|
E|------------------------------------------------------------------------|

G|------------------------------------------------------------------------------|
D|10----10----10----10----10----9-----7-----7-----7-----------------------------|
A|------------------------------------------------------------------------------|
E|------------------------------------------------------5-------------------5---|

G|------------------------------------------------------------------------------------------------|
D|------------------------------------------------------------------------------------------------|
A|------------------------------------------------------------------------------------------------|
E|0-------------------------------------------------------------------------------------------5---|

G|----------------------------------------------------------------|
D|----------------------------------------------------------------|
A|--------------------------------------------------------2-------|
E|0-----------------------------------------------5---------------|

G|----------------------------------------------------------------|
D|----------------------------------------------------------------|
A|----------------------------------------------------------------|
E|0-----------------------------------------------------------0---|
Suggest correction
Give kudos to tab author, rate the tab!
1 2 3 4 5
comments
print report bad tab
guest
You may want to rate the tab now too:
select rating
Wanna post a correction for this tab? Suggest correction