Oops, an error
Loading. Please wait.

The Bird Song Bass Tab

25 views 6 this week
no commentswrite comment
1 2 3 4 5
3 more votes to show rating
add to favorites
launch autoscroll
font size
0
reset
guitar tuner
Autoscroll
slow
fast
+/-
esc
set tempo
stop
Help us to improve Ultimate-Guitar.com Take our survey!
×
Author
Difficulty
novice
Tabbed by: 6METAL6BASSIST6
E-mail: petergriffinav@gmail.com

Tuning: EADG

G|----------------------------------------------------------------|
D|--------------------------------------------------------5-------|
A|----------------------------------------------------3-----------|
E|------------------------------------------------------------3---|

G|----------------------------------------------------------------|
D|--------------------------------------------------------5-------|
A|3---------------------------------------------------5-----------|
E|------------------------------------------------------------3---|

G|----------------------------------------------------------------|
D|--------------------------------------------------------5-------|
A|3---------------------------------------------------3-----------|
E|------------------------------------------------------------3---|

G|----------------------------------------------------------------|
D|--------------------------------------------------------5-------|
A|3---------------------------------------------------5-----------|
E|------------------------------------------------------------3---|

0:22

G|----------------------------------------------------------------|
D|----------------------------------------------------------------|
A|3---------------------------------------------------------------|
E|----------------------------------------------------------------|

G|----------------------------------------------------------------|
D|--------------------------------------------------------5-------|
A|----------------------------------------------------5-----------|
E|------------------------------------------------------------3---|

G|----------------------------------------------------------------|
D|----------------------------------------------------------------|
A|3---------------------------------------------------------------|
E|----------------------------------------------------------------|

G|----------------------------------------------------------------|
D|------------------------------------------------------------1-/-|
A|----------------------------------------------------------------|
E|----------------------------------------------------------------|

0:41

G|----------------------------------------------------------------|
D|6---6-------5---3-------3-------------------------------0-------|
A|--------------------------------1---1-------1---3---------------|
E|----------------------------------------------------------------|

G|----------------------------------------------------------------|
D|1---1-------1---0-------0-----------------------6-------5-------|
A|--------------------------------3---3-------3-------------------|
E|----------------------------------------------------------------|

G|----------------------------------------------------------------|
D|3---3-------3---1-------1-------0---0-------0-------------------|
A|--------------------------------------------------------6---5---|
E|------------------------------------------------3---3-----------|

0:57

G|----------------------------------------------------------------|
D|--------------------------------------------------------5-------|
A|3---------------------------------------------------3-----------|
E|------------------------------------------------------------3---|

G|----------------------------------------------------------------|
D|--------------------------------------------------------5-------|
A|3---------------------------------------------------5-----------|
E|------------------------------------------------------------3---|

G|----------------------------------------------------------------|
D|----------------------------------------------------------------|
A|3-------3-------3-------3-------3-------3-------3-------3-------|
E|----------------------------------------------------------------|

G|----------------------------------------------------------------|
D|--------------------------------------------------------5-------|
A|3-------3-------3-------3---------------------------5-----------|
E|--------------------------------3-------3-------3-----------3---|

1:19

G|----------------------------------------------------------------|
D|----------------------------------------------------------------|
A|3---------------3---------------1---------------1---------------|
E|----------------------------------------------------------------|

G|----------------------------------------------------------------|
D|--------------------------------------------------------5-------|
A|----------------------------------------------------5-----------|
E|4-----------3---1---------------3---------------3-----------3---|

G|----------------------------------------------------------------|
D|----------------------------------------------------------------|
A|3---------------3---------------1---------------1---------------|
E|----------------------------------------------------------------|

G|----------------------------------------------------------------|
D|------------------------------------------------------------1-/-|
A|----------------------------------------------------------------|
E|4-----------3---1---------------3-------------------------------|

1:39

G|----------------------------------------------------------------|
D|6---6-------5---3-------3-------------------------------0-------|
A|--------------------------------1---1-------1---3---------------|
E|----------------------------------------------------------------|

G|----------------------------------------------------------------|
D|1---1-------1---0-------0-----------------------6-------5-------|
A|--------------------------------3---3-------3-------------------|
E|----------------------------------------------------------------|

G|----------------------------------------------------------------|
D|3---3-------3---1-------1-------0---0-------0-------------------|
A|--------------------------------------------------------6---5---|
E|------------------------------------------------3---3-----------|

1:55

G|----------------------------------------------------------------|
D|--------------------------------------------------------5-------|
A|3---------------------------------------------------3-----------|
E|------------------------------------------------------------3---|

G|----------------------------------------------------------------|
D|--------------------------------------------------------5-------|
A|3---------------------------------------------------5-----------|
E|------------------------------------------------------------3---|

G|----------------------------------------------------------------|
D|--------------------------------------------------------5-------|
A|3---------------------------------------------------3-----------|
E|------------------------------------------------------------3---|

G|----------------------------------------------------------------|
D|--------------------------------------------------------5-------|
A|3---------------------------------------------------5-----------|
E|------------------------------------------------------------3---|

G|----------------------------------------------------------------|
D|----------------------------------------------------------------|
A|3---------------------------------------------3-----------------|
E|----------------------------------------------------------------|
Suggest correction
Give kudos to tab author, rate the tab!
1 2 3 4 5
comments
print report bad tab
guest
You may want to rate the tab now too:
select rating
Wanna post a correction for this tab? Suggest correction