Oops, an error
Loading. Please wait.

Iskolataska Tab

254 views 1 this week
no commentswrite comment
1 2 3 4 5
please rate
add to favorites
launch autoscroll
font size
0
reset
how to read this tab
guitar tuner
Tab Pro tools
  • play this tab
  • loop segment
  • change instrument
  • show fretboard
  • metronome
Autoscroll
slow
fast
+/-
esc
set tempo
stop
Contributor
Difficulty
novice
Bergendy: Iskolatáska:

Gitár átirat (PD.)

Intro
  *   .   .   .   *   .   .   .   *   .   .   .   *   .   .   .   
|-1-----1-1-------33333-----------1-----1-1-----------------------|
|-1-----1-1-------33333-----------1-----1-1-------55555-----------|
|-2-----2-2-------44444-----------2-----2-2-------44444-----------|
|-0-----0-0-------22222-----------0-----0-0-------55555-----------|
|-------------------------------------------------33333-----------|
|-----------------------------------------------------------------|


Verse
  *   .   .   .   *   .   .   .   *   .   .   .   *   .   .   .   
|-----------------------------------------------------------------|
|---------------------------1-------------------------------1-----|
|-------2-0-----------0-------0---------2-0-----------0-------0---|
|-----3-------3-2---3---2-------2-----3-------3-2---3---2-------2-|
|---3-------2---3---------3---------3-------2---3---------3-------|
|-1-------3-----------------------1-------3-----------------------|

  *   .   .   .   *   .   .   .   *   .   .   .   *   .   .   .   
|-----------------------------------------------------------------|
|-------1-0-------------------1-------------------------------0---|
|-----2-------2-0---0-0-------2---------2-0---------------------1-|
|---3-------0---2-------2---2---2-----3-------3-2---2-2-----2-----|
|---------------3---------0---------3-------2---3-------3---------|
|-1-------3-----------------------1-------3---------------0-------|

Chorus
  *   .   .   .   *   .   .   .   *   .   .   .   *   .   .   .   
|-0-----0-2-------1-------0-------0-----0-2-------4-------5-------|
|-----1---3---1-0---------------------1---3---1-0-----------------|
|---------2---------2---1-2---------------2---------2---1-2-------|
|---2-------0---------2-------2-----2-----0-0---------2-----------|
|-0-------0-------0-------0-0-----0-----------------------0---0-2-|
|-------------------------------------------------0---------------|

  *   .   .   .   *   .   .   .   *   .   .   .   *   .   .   .   
|-3-----0-2-------1-------0-------0-----0-2-------4-------5-------|
|-----1---3---1-0-------0-1-----------1---3---1-0-----------------|
|---------2---------2---------0---------------------2---1-2-------|
|---2-----0-0---------0-----2-------2-----0-0---------2---2-------|
|-3-----------------------3-------3-----------------------0-------|
|-----------------3-------------------------------0---------------|

átkötés
  *   .   .   .   *   .   .   .   *   .   .   .   *   .   .   .   
|-0-------------------------------0-------------------------------|
|-1-------3-1-0-1---0-------------1-------3-1-0-------------------|
|-2---2---2-----2-----2-0-2-------2---2---2-----2-----------------|
|-------------------------2---2-----------------------------------|
|-0-------0-----0---------0-------0-------0-----0-----------------|
|-----------------------------------------------------------------|
comments
We did not receive enough feedback on this tab! Please rate:
print report bad tab
1 2 3 4 5
I want to post or [tab]
guest
You may want to rate the tab now too:
select rating
Please do not post tabs as comments. Select "correction" instead!