Oops, an error
Loading. Please wait.

Gin And Juice bass

477 views 1 this week
no commentswrite comment
1 2 3 4 5
3 more votes to show rating
add to favorites
×
Save as Personal and add changes to this tab that will be seen only by you. Learn more ›
×
You can save this tab as Personal to edit and correct it or add notes. All changes will be seen only by you. Learn more »
launch autoscroll
font size
0
reset
guitar tuner
edit
Autoscroll
slow
fast
+/-
esc
set tempo
stop
Author
+++++++++++++++++++++++++++++++++++++
| The Berlin Project- Gin And Juice |
+++++++++++++++++++++++++++++++++++++


"With my mind in my money..."

Tuning: Standard EADG


Verse
"May I kick a little something for the G's..."
1.
G|-----------------------------------------------------------------|
D|-----2---------------2---------------2---------------2-----------|
A|-3-3---3-----2---0-0---0-----3---3-3---3-----2---0-0---0-----3---|--x3
E|---------3-3---3---------1-1---1---------3-3---3---------1-1---1-|

Chorus
"Rolling down the streets smoking indo..."
2.
G|-----------------------------------------------------------------|
D|-----2---------------2---------------2---------------2-----------|
A|-3-3---3-----2---0-0---0-----3---3-3---3-----2---0-0---0-----3---|--x2
E|---------3-3---3---------1-1---1---------3-3---3---------1-1---1-|

Verse
"Got me some Seagrams gin..."
3.
G|-----------------------------------------------------------------|
D|-----2---------------2---------------2---------------2-----------|
A|-3-3---3-----2---0-0---0-----3---3-3---3-----2---0-0---0-----3---|--x3
E|---------3-3---3---------1-1---1---------3-3---3---------1-1---1-|

Chorus
"Rolling down the streets smoking indo..."
4.
G|-----------------------------------------------------------------|
D|-----2---------------2---------------2---------------2-----------|
A|-3-3---3-----2---0-0---0-----3---3-3---3-----2---0-0---0-----3---|--x2
E|---------3-3---3---------1-1---1---------3-3---3---------1-1---1-|

Verse
"Later on that day..."
5.
G|-----------------------------------------------------------------|
D|-----2---------------2---------------2---------------2-----------|
A|-3-3---3-----2---0-0---0-----3---3-3---3-----2---0-0---0-----3---|--x3
E|---------3-3---3---------1-1---1---------3-3---3---------1-1---1-|

Chorus
"Rolling down the streets smoking indo..."
6.
G|-----------------------------------------------------------------|
D|-----2---------------2---------------2---------------2-----------|
A|-3-3---3-----2---0-0---0-----3---3-3---3-----2---0-0---0-----3---|--x4
E|---------3-3---3---------1-1---1---------3-3---3---------1-1---1-|



Lyrics:

With so much drama in the L-B-C 
It's kinda hard bein Snoop D-O-double-G 
But I, somehow, some way 
Keep comin up with funky ass shit like every single day 
May I kick a little something for the G's 
and, make a few ends as I breeze, through 
Two in the mornin and the party's still jumpin 
cause my momma ain't home 
I got bitches in the living room gettin it on 
and, they ain't leavin til six in the mornin
So what you wanna do, 
I got a pocket full of rubbers and my homeboys do too 
So turn off the lights and close the doors 
But but what we don't love them hoes
So we gonna smoke a ounce to this 
G's up, hoes down, while you motherfuckers bounce to this 

Rollin down the street, smokin indo, sippin on gin and juice 
with my mind on my money and my money on my mind 

Got me some Seagram's gin 
Everybody got they cups, but they ain't chipped in 
This types of shit, happens all the time 
You got to get yours but fool I gotta get mine 
Everything is fine when you listenin to the D-O-G 
Got the cultivating music that be captivating me 
when you listen to the words I speak 
As I take me a drink to the middle of the street 
mackin this chick named Sadie 
Used to be the homeboy's lady (Oh, that bitch) 
Eighty degrees, when I tell that chick please 
and its off gotta feel the breeze 

Later on that day 
My homey Dr. Dre came through with a gang of Tanqueray 
And a fat ass J, of some bubonic chronic that made me choke 
Shit, this ain't no joke 
I had to back up off of it and sit my cup down 
Tanqueray and chronic, yeah I'm fucked up now 
But it ain't no stoppin, I'm still poppin 
Dre got some bitches from the city of Compton 
To serve me, not with a cherry on top 
Cause when I bust my nut, I'm raisin up off the cot 
Don't get upset girl, that's just how it goes 
We dont love you hoes, I'm out the do' 
And I'll be 



+++++++++++++++++++++++++++++++++
| RaiLeff                       |
| Underground__Dora@Hotmail.Com |
+++++++++++++++++++++++++++++++++
Suggest correction
Creating personal tab
Creating personal tab
You can edit any tab online and save it as your Personal.

You can edit, replace or remove any tab part or add personal notes – all changes will be seen only by you.

Personal tabs can be accessed anytime from any device, even offline.
Learn more »
Give kudos to tab author, rate the tab!
1 2 3 4 5
comments
print report bad tab
guest
You may want to rate the tab now too:
select rating
Wanna post a correction for this tab? Suggest correction