Oops, an error
Loading. Please wait.

Down To The River Tab

version 2
version 2

Intro

Whole song

Interactive

3,578 views 1 this week
2 commentsread comments
1 2 3 4 5
worth learning
x 4
add to favorites
launch autoscroll
font size
0
reset
how to read this tab
guitar tuner
Autoscroll
slow
fast
+/-
esc
set tempo
stop
Help us to improve Ultimate-Guitar.com Take our survey!
×
Author
Difficulty
novice
Artist: Bernard Fanning
Song: Down the River
Album: Tea & Sympathy

e|------------0--------3---------0-----------|
B|---------1-----1---------1--------1--------|
G|-----0------------0---------0--------0-----|
D|-------------------------------------------|
A|--3----------------------------------------|
E|-------------------------------------------|

e|----------------0----------------------1--0-----|
B|----------1--------1-------------1-----------1--|
G|-------0-----0--------0-------0-----0-----------|
D|--1\2--------------------2\3--------------------|
A|------------------------------------------------|
E|------------------------------------------------|

repeat that as many times as u want, i havn't figured out the next bit yet
ne comments will be good, but i think i've got this 100% right

mongoose_018@hotmail.com
Suggest correction
comments
print report bad tab
2 comments total.
+1 reply
Moist Man 16 wrote on August 12 2010, 11:25 pm

listen closely man ur missing some notes in between, im pretty sure this is how it goes
E|-------------0---------3---------0--------|
B|---------1--------1---------1---------1---|
G|-----0------------------------------------|
D|------------------------------------------|
A|--3--------3--------3---------3---------3-|
E|------------------------------------------|

E|---------------0-----------------------1---0-----|
B|----------1--------3----1----------1-----------1-|
G|-------0------------------------0----------------|
D|--1\2--------2---2---2-----2\3-------3---3---3---|
A|-------------------------------------------------|
E|-------------------------------------------------|

0 reply
joey knoxville 10 wrote on May 28 2013, 02:08 am

good correction moist man you should tab it all

guest
You may want to rate the tab now too:
select rating
Please do not post tabs as comments. Select "correction" instead!