Oops, an error
Loading. Please wait.

Songbird Bass Tab

version 1
version 1

Whole song

Interactive

1,698 views 3 this week
no commentswrite comment
1 2 3 4 5
1 last vote to show rating
add to favorites
launch autoscroll
font size
0
reset
guitar tuner
Autoscroll
slow
fast
+/-
esc
set tempo
stop
Help us to improve Ultimate-Guitar.com Take our survey!
×
Author
Difficulty
intermediate
Song Bird - Bernard Fanning
Tabbed by Dave Nottage

I'm pretty sure the bass starts at 38s.

G|-------------------------------------------------------------------------------|
D|-------------------------------------------------------------2-----------------|
A|-2-------4-------5---5-----------2-------4-------5---5----------0-0------------|
E|-----2-------4-----------5---5-------2-------4-----------5----------4-2-0------|

G|-------------------------------------------------------------------------------|
D|-2-------2-------4-------2-----------------------------------------------------|
A|-----2-------2-------4-------2---5---5---0----0-2-4-------5-------4------------|
E|------------------------------------------------------4-------5-------4--------|

G|-------------------------------------------------------------------------------|
D|-0---0-2-4-------2-------------------------------------------------------------|
A|-------------4-------2---5---5---0----0-2-4-------5---5---4-------5-------5--4-|
E|----------------------------------------------4---------------4-------5--------|

G|-------------------------------------------------------------------------------|
D|-------------------------------------------------------------2-----------------|
A|-2-------4-------5---5-----------2-------4-------5---5----------0-0------------|
E|-----2-------4-----------5---5-------2-------4-----------5----------4-2-0------|

G|-------------------------------------------------------------------------------|
D|-----2-------4-------2--------------------------------2-------4-------2--------|
A|-2-------2-------4-------2---5---5---0-0---------2-2------2-------4-------2----|
E|-----------------------------------------4-2-0---------------------------------|


G|-------------------------------------------------------------------------------|
D|---------------------------------4-------2-------------------------------------|
A|-5----0---0------------------2-------4-------2---4-4-5---0---0-2-4-------5-----|
E|------------4-2-0----0---4-------------------------------------------4-------5-|

G|-------------------------------------------------------------------------------|
D|---------0---0-2-4---------------------------------4-------2-------0--/4-2-----|
A|-4-------------------4-------------5---5---------------4-------2---------------|
E|-----4-------------------5-0-2-4-----------5---4-------------------------------|

G|-------------------------------------------------------------------------------|
D|---------------2-----------------------4-------2-------------------------------|
A|-0-2-4-----4-------2---5---5---0---0-2-----4-------2---5---2--0----------------|
E|-------2-----------------------------------------------------------------------|

Suggest correction
Give kudos to tab author, rate the tab!
1 2 3 4 5
comments
print report bad tab
guest
You may want to rate the tab now too:
select rating
Wanna post a correction for this tab? Suggest correction