Oops, an error
Loading. Please wait.

Songbird Chords

version 2
version 2

Whole song

Interactive

11,960 views 1 this week
4 commentsread comments
1 2 3 4 5
accurate
x 5
add to favorites
launch autoscroll
font size
0
reset
transpose
0
reset
simplify chords
display chords
guitar tuner
Tab Pro tools
  • play this tab
  • loop segment
  • change instrument
  • show fretboard
  • metronome
×
Best way to learn
"Songbird"
Autoscroll
slow
fast
+/-
esc
set tempo
stop
Contributor
Capo
2nd fret
Songbitd by bernard fanning

Ok, here are the tabs for the song.

capo 2nd fret.

Intro

    F#m                  E                    D                    A
E|------0--0-------0---------2--2--0h2--2---------0--0-------0---------3--3-------3--|
B|------0--0-------0---------3--3--3----3---------1--1-------1---------3--3-------3--|
G|------0--0--0----0---------2--2--2----2---------0--0-------0---------0--0-------0--|
D|------2-----0h2--2----0----------0--------------2-----0h2------------0----------0--|
A|------2-----2------------------------------3----------3---------x----------0h2-----|
E|-0----------0---------------------------------------------------3------------------|
    D    D  u  D    D   D    D  u  D    D   D    D  u  D    D   D    D  u D    D


strum this rhythm throughout



    C#m                  D                   C#m                   D
E|------2--2--2----2---------0--0-------0---------2--2--2----2---------0--0-------0--|
B|------3--3--2h3--3---------1--1-------1---------3--3--2h3--3---------1--1-------1--|
G|------4--4--4----4---------0--0-------0---------4--4--4----4---------0--0-------0--|
D|------4--4-----------------2-----0h2------------4--4-----------------2-----0h2-----|
A|-2--------------------3----------3---------2--------------------3----------3-------|
E|-----------------------------------------------------------------------------------| 




            I  wish i knew  which button to push       Then I'd know          how to
    F#m                  E                    D                    A
E|------0--0-------0---------2--2--0h2--2---------0--0-------0---------3--3-------3--|
B|------0--0-------0---------3--3--3----3---------1--1-------1---------3--3-------3--|
G|------0--0--0----0---------2--2--2----2---------0--0-------0---------0--0-------0--|
D|------2-----0h2--2----0----------0--------------2-----0h2------------0----------0--|
A|------2-----2------------------------------3----------3---------x----------x-------|
E|-0----------0---------------------------------------------------3----------3-------|


    please           you                It's sad        but true........
    C#m                  D                   C#m                   D
E|------2--2--2----2---------0--0-------0---------2--2--2----2---------0--0-------0--|
B|------3--3--2h3--3---------1--1-------1---------3--3--2h3--3---------1--1-------1--|
G|------4--4--4----4---------0--0-------0---------4--4--4----4---------0--0-------0--|
D|------4--4-----------------2-----0h2------------4--4-----------------2-----0h2-----|
A|-2--------------------3----------3---------2--------------------3----------3-------|
E|-----------------------------------------------------------------------------------|


    F#m                  E                    D                    A
E|------0--0-------0---------2--2--0h2--2---------0--0-------0---------3--3-------3--|
B|------0--0-------0---------3--3--3----3---------1--1-------1---------3--3-------3--|
G|------0--0--0----0---------2--2--2----2---------0--0-------0---------0--0-------0--|
D|------2-----0h2--2----0----------0--------------2-----0h2------------0----------0--|
A|------2-----2------------------------------3----------3---------x----------x-------|
E|-0----------0---------------------------------------------------3----------3-------|


    C#m                  D                   C#m                   D
E|------2--2--2----2---------0--0-------0---------2--2--2----2---------0--0-------0--|
B|------3--3--2h3--3---------1--1-------1---------3--3--2h3--3---------1--1-------1--|
G|------4--4--4----4---------0--0-------0---------4--4--4----4---------0--0-------0--|
D|------4--4-----------------2-----0h2------------4--4-----------------2-----0h2-----|
A|-2--------------------3----------3---------2--------------------3----------3-------|
E|-----------------------------------------------------------------------------------|


     D
E|-----0--0-------0--0---|
B|-----1--1-------1--1---|
G|-----0--0-------0--0---|
D|-0h2--------0h2--------|
A|-3----------3----------|
E|-----------------------|



Chorus


    Song bird...                    you've got  tales       to tell
    Bm                    A/C#                  D                     A
E|------0--0-------0--0---------------------------------------------------3--3------3--|
B|------1--1-------1--1-------3--3-------3--3-------1--1-------1--1-------3--3------3--|
G|-2----2--2--2----2--2-------0--0-------0--0-------0--0-------0--0-------0--0------0--|
D|-2----2--2--2----2--2-------x--x-------x--x-------2--2-------2--2-------0---------0--|
A|-0----------0----------2----------2----------3----------3---------------------x------|
E|-------------------------------------------------------------------3----------3------|


How many   times   can    you describe your    living           hell?


    Bm                    A/C#                  D                     A
E|------0--0-------0--0---------------------------------------------------3--3------3--|
B|------1--1-------1--1-------3--3-------3--3-------1--1-------1--1-------3--3------3--|
G|-2----2--2--2----2--2-------0--0-------0--0-------0--0-------0--0-------0--0------0--|
D|-2----2--2--2----2--2-------x--x-------x--x-------2--2-------2--2-------0---------0--|
A|-0----------0----------2----------2----------3----------3---------------------x------|
E|-------------------------------------------------------------------3----------3------|



     A                    E             Esus2    E7
E|----------3-----------------2--2--2--0--0--0--2--2--2--2--2--0--0--0---|
B|-------3--3--3--------------3--3--3--3--3--3--1--1--1--1--1--1--1--1---|
G|-------0--0--0---------2----2--2--2--2--2--2--2--2--2--2--2--2--2--2---|
D|--0----0--0--0---------0----------------0-----------0-----------0------|
A|--2----2-----x----2----------------------------------------------------|
E|--3----3-----2----0----------------------------------------------------|



Verse 2


       Sweeping gesture....
    F#m                  E                    D                    A
E|------0--0-------0---------2--2--0h2--2---------0--0-------0---------3--3-------3--|
B|------0--0-------0---------3--3--3----3---------1--1-------1---------3--3-------3--|
G|------0--0--0----0---------2--2--2----2---------0--0-------0---------0--0-------0--|
D|------2-----0h2--2----0----------0--------------2-----0h2------------0----------0--|
A|------2-----2------------------------------3----------3---------x----------x-------|
E|-0----------0---------------------------------------------------3----------3-------|


        C#m                  D                   C#m                   D
E|------2--2--2----2---------0--0-------0---------2--2--2----2---------0--0-------0--|
B|------3--3--2h3--3---------1--1-------1---------3--3--2h3--3---------1--1-------1--|
G|------4--4--4----4---------0--0-------0---------4--4--4----4---------0--0-------0--|
D|------4--4-----------------2-----0h2------------4--4-----------------2-----0h2-----|
A|-2--------------------3----------3---------2--------------------3----------3-------|
E|-----------------------------------------------------------------------------------|


    F#m                  E                    D                    A
E|------0--0-------0---------2--2--0h2--2---------0--0-------0---------3--3-------3--|
B|------0--0-------0---------3--3--3----3---------1--1-------1---------3--3-------3--|
G|------0--0--0----0---------2--2--2----2---------0--0-------0---------0--0-------0--|
D|------2-----0h2--2----0----------0--------------2-----0h2------------0----------0--|
A|------2-----2------------------------------3----------3---------x----------x-------|
E|-0----------0---------------------------------------------------3----------3-------|


    C#m                  D                   C#m                   D
E|------2--2--2----2---------0--0-------0---------2--2--2----2---------0--0-------0--|
B|------3--3--2h3--3---------1--1-------1---------3--3--2h3--3---------1--1-------1--|
G|------4--4--4----4---------0--0-------0---------4--4--4----4---------0--0-------0--|
D|------4--4-----------------2-----0h2------------4--4-----------------2-----0h2-----|
A|-2--------------------3----------3---------2--------------------3----------3-------|
E|-----------------------------------------------------------------------------------|


     D
E|-----0--0-------0--0---|
B|-----1--1-------1--1---|
G|-----0--0-------0--0---|
D|-0h2--------0h2--------|
A|-3----------3----------|
E|-----------------------|



Chorus 2


    Song bird...                    you've got  tales       to tell
    Bm                    A/C#                  D                     A
E|------0--0-------0--0---------------------------------------------------3--3------3--|
B|------1--1-------1--1-------3--3-------3--3-------1--1-------1--1-------3--3------3--|
G|-2----2--2--2----2--2-------0--0-------0--0-------0--0-------0--0-------0--0------0--|
D|-2----2--2--2----2--2-------x--x-------x--x-------2--2-------2--2-------0---------0--|
A|-0----------0----------2----------2----------3----------3---------------------x------|
E|-------------------------------------------------------------------3----------3------|


How many   times   can    you describe your    living           hell?


    Bm                    A/C#                  D                     A
E|------0--0-------0--0---------------------------------------------------3--3------3--|
B|------1--1-------1--1-------3--3-------3--3-------1--1-------1--1-------3--3------3--|
G|-2----2--2--2----2--2-------0--0-------0--0-------0--0-------0--0-------0--0------0--|
D|-2----2--2--2----2--2-------x--x-------x--x-------2--2-------2--2-------0---------0--|
A|-0----------0----------2----------2----------3----------3---------------------x------|
E|-------------------------------------------------------------------3----------3------|



                             VIOLIN (fiddle) ENTERS...
     A         E/G# F#   E             Esus2    E7
E|---------3-----------------2--2--2--0--0--0--2--2--2--2--2--0--0--0---|
B|------3--3--3--------------3--3--3--3--3--3--1--1--1--1--1--1--1--1---|
G|------0--0--0---------2----2--2--2--2--2--2--2--2--2--2--2--2--2--2---|
D|-0----0--0--0---------0----------------0-----------0-----------0------|
A|-2----2-----x----2----------------------------------------------------|
E|-3----3-----2----0----------------------------------------------------|


VIOLIN......
    F#m                  E                    D                    A   E/G#  F#
E|------0--0-------0---------2--2--0h2--2---------0--0-------0---------3--3----------|
B|------0--0-------0---------3--3--3----3---------1--1-------1---------3--3----------|
G|------0--0--0----0---------2--2--2----2---------0--0-------0---------0--0----------|
D|------2-----0h2--2----0----------0--------------2-----0h2------------0-------------|
A|------2-----2------------------------------3----------3---------x----------x----2--|
E|-0----------0---------------------------------------------------3----------2----0--|


VIOLIN........
    E             Esus2    E7
E|------2--2--2--0--0--0--2--2--2--2--2--0--0--0--|
B|------3--3--3--3--3--3--1--1--1--1--1--1--1--1--|
G|-2----2--2--2--2--2--2--2--2--2--2--2--2--2--2--|
D|-0----------------0-----------0-----------0-----|
A|------------------------------------------------|
E|------------------------------------------------|


VIOLIN........
    F#m                  E                    D                    A   E/G#  F#
E|------0--0-------0---------2--2--0h2--2---------0--0-------0---------3--3----------|
B|------0--0-------0---------3--3--3----3---------1--1-------1---------3--3----------|
G|------0--0--0----0---------2--2--2----2---------0--0-------0---------0--0----------|
D|------2-----0h2--2----0----------0--------------2-----0h2------------0-------------|
A|------2-----2------------------------------3----------3---------x----------x----2--|
E|-0----------0---------------------------------------------------3----------2----0--|



VIOLIN........
    E             Esus2    E7
E|------2--2--2--0--0--0--2--2--2--2--2--0--0--0--|
B|------3--3--3--3--3--3--1--1--1--1--1--1--1--1--|
G|-2----2--2--2--2--2--2--2--2--2--2--2--2--2--2--|
D|-0----------------0-----------0-----------0-----|
A|------------------------------------------------|
E|------------------------------------------------|



         wish i knew...
    F#m                  E                    D                    A
E|------0--0-------0---------2--2--0h2--2---------0--0-------0---------3--3-------3--|
B|------0--0-------0---------3--3--3----3---------1--1-------1---------3--3-------3--|
G|------0--0--0----0---------2--2--2----2---------0--0-------0---------0--0-------0--|
D|------2-----0h2--2----0----------0--------------2-----0h2------------0----------0--|
A|------2-----2------------------------------3----------3---------x----------x-------|
E|-0----------0---------------------------------------------------3----------3-------|


        C#m                  D                   C#m                   D
E|------2--2--2----2---------0--0-------0---------2--2--2----2---------0--0-------0--|
B|------3--3--2h3--3---------1--1-------1---------3--3--2h3--3---------1--1-------1--|
G|------4--4--4----4---------0--0-------0---------4--4--4----4---------0--0-------0--|
D|------4--4-----------------2-----0h2------------4--4-----------------2-----0h2-----|
A|-2--------------------3----------3---------2--------------------3----------3-------|
E|-----------------------------------------------------------------------------------|



let somebody love you just enough....
    F#m                  E                    D                    A
E|------0--0-------0---------2--2--0h2--2---------0--0-------0---------3--3-------3--|
B|------0--0-------0---------3--3--3----3---------1--1-------1---------3--3-------3--|
G|------0--0--0----0---------2--2--2----2---------0--0-------0---------0--0-------0--|
D|------2-----0h2--2----0----------0--------------2-----0h2------------0----------0--|
A|------2-----2------------------------------3----------3---------x----------x-------|
E|-0----------0---------------------------------------------------3----------3-------| x 4
comments
print report bad tab
4 comments total. Showing first comments.
0 reply
muzza j wrote on February 11 2006, 11:28 pm

i'm muzza j and u just copied my chords so u suck! f@#k off!

0 reply
muzza j wrote on February 27 2006, 06:27 pm

crappy tab

0 reply
~FE@RLES~ wrote on March 11 2006, 12:57 am

lol

I want to post or [tab]
guest
You may want to rate the tab now too:
select rating
Please do not post tabs as comments. Select "correction" instead!