Oops, an error
Loading. Please wait.

Which Way Home Tab

version 1
version 1

Intro

  • Sounds a bit more like the song compared to the others.
1,716 views 3 this week
3 commentsread comments
1 2 3 4 5
worth learning
x 3
add to favorites
launch autoscroll
font size
0
reset
how to read this tab
guitar tuner
Autoscroll
slow
fast
+/-
esc
set tempo
stop
Help us to improve Ultimate-Guitar.com Take our survey!
×
Author
Difficulty
novice
Which Way Home - Bernard Fanning 


[Intro]

Since I don't have a good acoustic guitar, I just use a clean setting on my Line 6 
3 amp with an electric guitar
It's in E standard tuning

e|-----------------------|
b|-----------------------|
g|------------------0----|
d|--0----0----0----0-----|
a|-----4-----0---4-------|
E|0---------0------------|
Suggest correction
Give kudos to tab author, rate the tab!
1 2 3 4 5
comments
print report bad tab
3 comments total.
+2 reply
lewy 89 10 wrote on March 27 2010, 10:07 pm

i think instead of 7th on the E string its actually 9th, im not sure but try it

0 reply
casey.ryan 10 wrote on December 11 2014, 09:39 pm

Lack of accuracy. Wrong frets for most of it. Its also much easier to play the open string than the 4 and 5

0 reply
casey.ryan 10 wrote on December 11 2014, 09:39 pm

e|---------------------------|
B|---------------------------|
G|---------------------0-----|
D|----0---0-----0---0--------|
A|------------0--------------|
E|--0---9---0-----9----------|
Only play the first 0 the first time through

guest
You may want to rate the tab now too:
select rating
Wanna post a correction for this tab? Suggest correction