Oops, an error
Loading. Please wait.

Taxi Driver Theme Tab

130 views 12 this week
1 commentread comment
1 2 3 4 5
x 3
add to favorites
launch autoscroll
font size
0
reset
how to read this tab
guitar tuner
Autoscroll
slow
fast
+/-
esc
set tempo
stop
Help us to improve Ultimate-Guitar.com Take our survey!
×
Author
Difficulty
Melody: Taxi Driver Theme (So Close To me Blues)
Chords.
By: Bernard Herrman.
Chord analysis: Mats Fagergren. 2016-11-13

Comment: I have focused on the Jazzy chord progression, and not the tab.. The simple tab "melody"
is just there in order give support for the more important chord changes.
This is the full melody with all chord changes. 
The full melody can be found on the record /CD alt Spotify (look for..A reluctant Hero)
Chord info before the tab/chords.


         E,A,D,G,B,e             E,A,D,G,B,e                    E,A,D,G,B,e                  E,A,D,G,B,e
Gm9      3,5,3,3,3,5   Ebm9      11,13,11,11,11,13  Am11        5,5,5,5,5,7   Bbm9           6,8,6,6,6,8
C7/G     3,3,5,3,5,3   Ab7(b9)   x,11,10,11,10,x    D7(b5,b9)   x,5,4,5,4,4   Eb9            x,6,5,6,6,6
F6/9     1,0,0,0,1,1   C#m9      9,11,9,9,9,11      G7(b5)      3,x,3,4,2,x   Abm(maj7)(#11) 4,6,5,7,x,x
C13      x,3,5,3,5,5   F#7(b9)   x,9,8,9,8,x        C7(b9)      x,3,2,3,2,(3) Fm9            1,3,1,1,1,3
Dm11     x,5,5,5,6,5   Bm7       7,9,7,7,7,7        Abm7        4,6,4,4,4,4   Db9(#11)       x,4,3,4,4,3
Gm11     3,3,3,3,3,5   E7(#5,#9) x,7,6,7,8,8        D7(b9)      x,5,4,5,4,x   Ebmaj7(#5)/G   3,6,5,4,3,3
C7(#9)   x,3,2,3,4,x   Amaj7     5,x,6,6,5,x        Gm7         3,5,3,3,3,3
Fmaj7    x,x,3,2,1,0   A7        5,7,5,6,5,5        Cm9         8,10,8,8,8,10
Fm7      1,3,1,1,1,1   A6        5,x,4,6,5,x        F9          x,8,7,8,8,8
Bb7(b9)  x,1,0,1,0,x   F#7(#9)   x,x,4,3,5,5


[Intro]


| Gm9 | C7/G | Gm9 | F6/9 |
| Gm7 | C7/G | Gm7 | C7/G |

[verse]

  Gm9    C13         F6/9  Dm11        Gm11 F#7(#9) C7(#9)  Fmaj7   Fm7 Bb7(b9)
e|---------8--------|-----------------|-8--8--11---10-9-|-8-12-12-8------------|
B|-10-8-10--10-10-8-|----8-10-8-8-----|--10-------------|----------------------|
G|------------------|-10----------10--|-----------------|----------------------|
D|------------------|-----------------|-----------------|----------------------|
A|------------------|-----------------|-----------------|----------------------|
E|------------------|-----------------|-----------------|----------------------|
 
  Ebm9    Ab7(b9)    C#m9   F#7(b9)    Bm9   E7(#5,#9)  Amaj7     Amaj7 A7
e|---------4--------|-----------------|----------------|---------|------------|
B|-6--4--6--6-6-4---|-4-----4-5-4-4---|----------------|---------|------------|
G|------------------|---6----------6--|-6-4----5--4--5-|-4-------|------------|
D|------------------|-----------------|-----4----------|---------|------------|
A|------------------|-----------------|----------------|---7-----|------------|
E|------------------|-----------------|----------------|---------|------------|

[verse]
 
  Gm9    C13         F6/9  Dm11        Gm11 F#7(#9) C7(#9)   Fmaj7   Fm7 Bb7(b9)
e|---------8--------|-----------------|-8--8--11---10-9-|-8-12-12-8------------|
B|-10-8-10--10-10-8-|----8-10-8-8-----|--10-------------|----------------------|
G|------------------|-10----------10--|-----------------|----------------------|
D|------------------|-----------------|-----------------|----------------------|
A|------------------|-----------------|-----------------|----------------------|
E|------------------|-----------------|-----------------|----------------------|
 
  Ebm9    Ab7(b9)    C#m9   F#7(b9)    Bm9   E7(#5,#9) Amaj7     Amaj7 A6
e|---------4--------|-----------------|----------------|---------|-----------|
B|-6--4--6--6-6-4---|-4-----4-5-4-4---|----------------|---------|-----------|
G|------------------|---6----------6--|-6-4----5--4--5-|-4-------|-----------|
D|------------------|-----------------|-----4----------|---------|-----------|
A|------------------|-----------------|----------------|---7-----|-----------|
E|------------------|-----------------|----------------|---------|-----------|    

[interlude]
  
  Am11  D7(b5,b9)     G7(b5)  C7(b9)    Abm7    D7(b9)   Gm7      Gm7
e|------------------|-----------3------|-3-3-2-1-4---7-|---------|-----------|
B|-3---3-4-4-3-3-4--|-5---2-5-5---5----|---------------|-3-2-1---|-----------|
G|---4--------------|--6---------------|---------------|---------|-----------|
D|------------------|------------------|---------------|---------|-----------|
A|------------------|------------------|---------------|---------|-----------|
E|------------------|------------------|---------------|---------|-----------|

  Cm9       F9        Bbm9    Eb9      Abm(maj7)(#11)   Abm(maj7)(#11)
e|------------------|------------------|--------------|------------------|
B|--3-3-1-0-3-------|-1-1-----1--------|--3-0------0--|3---0-------------|
G|-------------0--2-|-----3-2-------0--|--------------|------------------|
D|------------------|------------3-----|--------------|------------------|
A|------------------|------------------|--------------|------------------|
E|------------------|------------------|--------------|------------------|


[verse]


  Gm9    C13         F6/9  Dm11        Gm11 F#7(#9) C7(#9)   Fmaj7   Fm7 Bb7(b9)
e|---------8--------|-----------------|-8--8--11---10-9-|-8-12-12-8------------|
B|-10-8-10--10-10-8-|----8-10-8-8-----|--10-------------|----------------------|
G|------------------|-10----------10--|-----------------|----------------------|
D|------------------|-----------------|-----------------|----------------------|
A|------------------|-----------------|-----------------|----------------------|
E|------------------|-----------------|-----------------|----------------------|
 
  Ebm9    Ab7(b9)    C#m9   F#7(b9)    Bm9   E7(#5,#9)  Amaj7     Amaj7 A6
e|---------4--------|-----------------|----------------|---------|-----------|
B|-6--4--6--6-6-4---|-4-----4-5-4-4---|----------------|---------|-----------|
G|------------------|---6----------6--|-6-4----5--4--5-|-4-------|-----------|
D|------------------|-----------------|-----4----------|---------|-----------|
A|------------------|-----------------|----------------|---7-----|-----------|
E|------------------|-----------------|----------------|---------|-----------|    

[interlude]

  Am11  D7(b5,b9)     G7(b5)  C7(b9)    Abm7    D7(b9)   Gm7      Gm7
e|------------------|-----------3------|-3-3-2-1-4---7-|---------|-----------|
B|-3---3-4-4-3-3-4--|-5---2-5-5---5----|---------------|-3-2-1---|-----------|
G|---4--------------|--6---------------|---------------|---------|-----------|
D|------------------|------------------|---------------|---------|-----------|
A|------------------|------------------|---------------|---------|-----------|
E|------------------|------------------|---------------|---------|-----------|

  Cm9         F9      Bbm9      Eb9     Abm(maj7)(#11) 
e|------------------|------------------|--------------|
B|--3-3-1-0-3-------|-1-1-----1--------|--3-0------0--|
G|-------------0--2-|-----3-2-------0--|--------------|
D|------------------|------------3-----|--------------|
A|------------------|------------------|--------------|
E|------------------|------------------|--------------|

[outtro]

  Gm9   C7(b9)        Fm9    Bb7(b9)   Db9(#11)                 Ebmaj7(#5)/G
e|--5--5--8-5-3-----|-3-1----3--4----|------------3----|---|---------------|
B|----8-------------|----------------|-------------3---|---|---------------|
G|------------------|----------------|---ad lib-----4--|---|---------------|
D|------------------|----------------|---------------5-|---|---------------|
A|------------------|----------------|-----------------|---|---------------|
E|------------------|----------------|-----------------|---|---------------|
Suggest correction
Give kudos to tab author, rate the tab!
1 2 3 4 5
comments
print report bad tab
1 comment total.
0 reply
SveaAgnes 25 Nov 17, 2016 10:29 AM

Wonderful harmonies in this song. Thanks for uploading the chords on UG. Some difficult chords for me, but I will try to learn how to play them.

guest
You may want to rate the tab now too:
select rating
Wanna post a correction for this tab? Suggest correction