Oops, an error
Loading. Please wait.

No Translation Bass Tab

48 views 1 this week
no commentswrite comment
1 2 3 4 5
please rate
add to favorites
launch autoscroll
font size
0
reset
guitar tuner
Tab Pro tools
  • play this tab
  • loop segment
  • change instrument
  • show fretboard
  • metronome
Autoscroll
slow
fast
+/-
esc
set tempo
stop
Contributor
Difficulty
novice
Original:
G|------------------------------------------------------------|
D|-------------------------5--5--5----------------------------|
A|-7--7--7--7--7--7--7--7-----------3/5--5--5--5--5--5--5--5--|
E|------------------------------------------------------------|

Kako ja sviram jas:
G|----------------------------------------------------------------|
D|-------------------------5--5--5--------------------------------|
A|-7--7--7--7--7--7--7--7-----------3/5--5--5--5--5-------5-------|
E|---------------------------------------------------3/5-----5/7--|
comments
We did not receive enough feedback on this tab! Please rate:
print report bad tab
1 2 3 4 5
I want to post or [tab]
guest
You may want to rate the tab now too:
select rating
Please do not post tabs as comments. Select "correction" instead!