Oops, an error
Loading. Please wait.

Shout Bass

1,275 views 3 this week
no commentswrite comment
1 2 3 4 5
3 more votes to show rating
add to favorites
launch autoscroll
font size
0
reset
guitar tuner
×
Best way to learn
"Shout"
Autoscroll
slow
fast
+/-
esc
set tempo
stop
Author
Difficulty
  follow
intermediate
Début du riff après le pont et l'entrée du chant (refrain)

G|----------------|----------------|----------------|----------------|
D|3-------------1-|3-------3--x----|----------------|----------------|
A|-------------3-3|------------6--x|4-4--4--4-------|4-4--4--4-------|
E|--1--1--1-------|--1--1----------|----------------|-----------x4---|
  |   |   |   |    |   |   |   |    |   |   |   |    |   |   |   |      

G|----------------|----------------|----------------|----------------|
D|----------------|----------------|----------------|--------------1-|
A|1-1--1--1-------|1-1--1--1--x3---|----------------|------------3--3|
E|-------------141|----------------|1-1--1--1-------|1-1--1--1-------|
  |   |   |   |    |   |   |   |    |   |   |   |    |   |   |   |    

http://www.youtube.com/watch?v=lga1erQcwBU&feature=related

Si vous constatez des erreurs, laissez moi vos commentaires 
(si c'est bon aussi ça fait toujours plaisir) 
je ne suis pas un professionnel, de plus c'est la première tablature que j'édite. MUSICALEMENT

Adrien Lap 
Suggest correction
Give kudos to tab author, rate the tab!
1 2 3 4 5
comments
print report bad tab
guest
You may want to rate the tab now too:
select rating
Wanna post a correction for this tab? Suggest correction