Oops, an error
Loading. Please wait.

Downunder tab

82 views 3 this week
no commentswrite comment
1 2 3 4 5
3 more votes to show rating
add to favorites
×
Save as Personal and add changes to this tab that will be seen only by you. Learn more ›
×
You can save this tab as Personal to edit and correct it or add notes. All changes will be seen only by you. Learn more »
launch autoscroll
font size
0
reset
how to read this tab
guitar tuner
edit
Autoscroll
slow
fast
+/-
esc
set tempo
stop
Artist: Bert Jansch
Song: Downunder
Album: Live In Australia
Tuning: Standard

Capo: 2nd fret

Indicates rhythm

The F#5 chord (022400) in the 4/4 parts is strummed;
I suggest listening closely to the record to get the rythm down.

[3/4]

   *     *     *      *     *     *      *     *     *      *     *     *
e|-----------0------|------------------|-----------0------|------------------|
B|-------------0----|------------------|-------------0----|------------------|
G|---------0------0-|----2-------------|---------0------0-|----2-------------|
D|-------4-----2----|----------2-----0-|-------4-----2----|----------2-----0-| (x4)
A|----2-------------|-2--0-------------|----2-------------|-2--0-------------|
E|-0----------------|-------------3----|-0----------------|-------------3----|

   *     *     *      *     *     *
e|-----------0------|------------------|
B|-------------0----|------------------|
G|---------0------0-|----2-------------|
D|-------4-----2----|----------2-----0-|
A|----2-------------|-2--0-------------|
E|-0----------------|-------------3----|

   *     *     *      *     *     *      *     *     *      *     *     *
e|-------0----------|------------------|-------0----------|------------------|
B|---------0---3----|----2-------------|---------3---3----|----2-------------|
G|-----------5----5-|----0---h2p0----0-|-----------5----5-|----0---h2p0----0-|
D|----2--------5----|-0-----------4----|----2--------5----|-0-----------4----|
A|-0----------------|------------------|-0----------------|------------------|
E|------------------|------------------|------------------|------------------|

   *     *     *      *     *     *      *     *     *      *     *     *
e|-----------0------|------------------|-----------0------|------------------|
B|-------------0----|------------------|-------------0----|------------------|
G|---------0------0-|----2-------------|---------0------0-|----2-------------|
D|-------4-----2----|----------2-----0-|-------4-----2----|----------2-----0-|
A|----2-------------|-2--0-------------|----2-------------|-2--0-------------|
E|-0----------------|-------------3----|-0----------------|-------------3----|

   *     *     *      *     *     *      *     *     *      *     *     *
e|-------0----------|------------------|------------------|------------------|
B|---------3---3----|----2-------------|-0----------------|------------------|
G|-----------5----5-|----0---h2p0------|-0---------------2|p0---0------------|
D|----2--------5----|-0-----------4----|------------------|---4--------------|
A|-0----------------|------------------|-2-----------3----|-------2----------|
E|------------------|------------------|------------------|-------------3----|

   *     *     *      *     *     *      *     *     *      *     *     *
e|-----------0------|------------------|-----------0------|------------------|
B|-------------0----|------------------|-------------0----|------------------|
G|---------0------0-|----2-------------|---------0------0-|----2-------------|
D|-------4-----2----|----------2-----0-|-------4-----2----|----------2-----0-| (x2)
A|----2-------------|-2--0-------------|----2-------------|-2--0-------------|
E|-0----------------|-------------3----|-0----------------|-------------3----|

   *     *     *      *     *     *      *     *     *      *     *     *
e|-------0----------|------------------|-------0----------|------------------|
B|---------0---3----|----2-------------|---------3---3----|----2-------------|
G|-----------5----5-|----0---h2p0----0-|-----------5----5-|----0---h2p0----0-|
D|----2--------5----|-0-----------4----|----2--------5----|-0-----------4----|
A|-0----------------|------------------|-0----------------|------------------|
E|------------------|------------------|------------------|------------------|

   *     *     *      *     *     *      *     *     *      *     *     *
e|-----------0------|------------------|-----------0------|------------------|
B|-------------0----|------------------|-------------0----|------------------|
G|---------0------0-|----2-------------|---------0------0-|----2-------------|
D|-------4-----2----|----------2-----0-|-------4-----2----|----------2-----0-|
A|----2-------------|-2--0-------------|----2-------------|-2--0-------------|
E|-0----------------|-------------3----|-0----------------|-------------3----|

   *     *     *      *     *     *      *     *     *      *     *     *
e|-------0----------|------------------|------------------|------------------|
B|---------3---3----|----2-------------|-0----------------|------------------|
G|-----------5----5-|----0---h2p0------|-0---------------2|p0---0------------|
D|----2--------5----|-0-----------4----|------------------|---4--------------|
A|-0----------------|------------------|-2-----------3----|-------2----------|
E|------------------|------------------|------------------|-------------3----|

[4/4]
   *     *     *     *      *     *     *     *
e|----------0----(0)-0----|----------0-------------|
B|-------0--0----(0)-0----|------------------------|
G|---4-4-4--4--------4----|-7-----7----------------|
D|---2-2-2--2--------2--2-|---0---------------0----|
A|---2---------------2----|-9---9----------9-------|
E|-0-----------------0----|----------------------7-|
                     s

   *     *     *     *      *     *     *     *
e|----------0--------0----|----------0-------------|
B|-------0--0--------0----|------------------------|
G|---4-4-4--4--------4----|-------7----------------|
D|---2-2-2--2--------2--2-|---0---------------0----|
A|---2---------------2----|-----9----------9-------|
E|-0-----------------0----|-7--------------------7-|
                     s

   *     *     *     *      *     *     *     *
e|----------0--------0----|---------0--------------|
B|-------0--0--------0----|---------0--------------|
G|---4-4-4--4--------4----|-7-----7----------------|
D|---2-2-2--2--------2--2-|---0---------------0----|
A|---2---------------2----|-9---9----------9-------|
E|-0-----------------0----|----------------------7-|
                     s

   *     *     *     *      *     *     *     *
e|----------0-----0-------|---------0--------------|
B|-------0--0-----0-------|---------0--------------|
G|---4-4-4--4-----4-------|-------7----------------|
D|---2-2-2--2-----------2-|---0---------------0----|
A|---2--------------------|-----9----------9-------|
E|-0----------------------|-7--------------------7-|

   *     *     *     *      *     *     *     *
e|----------0-------------|-------0--------0-------|
B|------------------------|-------0--0-----0-------|
G|-4-----4----------------|-------4--4-------------|
D|---7------------7-------|-2-2-2-2--2-------------|
A|-----7----------------7-|-2-2-2-------------0----|
E|-5-----------------5----|-0--------0-------------|
                                              s

   *     *     *     *
e|----------0-------------|
B|----------0-------------|
G|-4-----4----------------|
D|---7------------7-------|
A|-----7----------------7-|
E|-5-----------------5----|

[3/4]
   *     *     *      *     *     *      *     *     *      *     *     *
e|------------------|------------------|------------------|------------------|
B|----------0-------|-3p2p0-2b----0--0-|------------------|-3p2p0-2b----0----|
G|---4------4-------|-4p2p0-2b----0--4-|-------x----------|-4p2p0-2b----0--4-|
D|---2-2-2--2-------|----------------2-|-------x--2-------|----------------2-|
A|---2-2-2--2-------|------------------|----2--x----------|------------------|
E|-0---0------------|------------------|-0-----x--------0-|------------------|
                                         PM--------------|

   *     *     *      *     *     *      *     *     *      *     *     *
e|------------------|------------------|------------------|------------------|
B|------------------|-3p2p0-2b----0--0-|------------------|-3p2p0-2b----0----|
G|-------4----------|-4p2p0-2b----0--4-|-------4--4-------|-4p2p0-2b----0--4-|
D|-------0--2-------|------------------|----2--0--2-------|----------------2-|
A|----2-------------|------------------|------------------|------------------|
E|-0--------------0-|------------------|-0--------------0-|------------------|
   PM--------------|                     PM--------------|

[4/4]
   *     *     *     *      *     *     *     *
e|------------------------|----0--0-0---0---0------|
B|----------0-------------|----0--0-0---0---0------|
G|-------4--4-------------|----2--2-2---2---2------|
D|-------0--2------------0|----------------------0-|
A|----2-------------------|-0----------------------|
E|-0-----------------0h3--|------------------------|
   PM-----|

[3/4]
   *     *     *      *     *     *      *     *     *      *     *     *
e|-----------0------|------------------|-----------0------|------------------|
B|-------------0----|------------------|-------------0----|------------------|
G|---------0------0-|----2-------------|---------0------0-|----2-------------|
D|-------4-----2----|----------2-----0-|-------4-----2----|----------2-----0-|
A|----2-------------|-2--0-------------|----2-------------|-2--0-------------|
E|-0----------------|-------------3----|-0----------------|-------------3----|

   *     *     *      *     *     *
e|-----------0------|------------------|
B|-------------0----|------------------|
G|---------0------0-|----2-------------|
D|-------4-----2----|----------2-----0-|
A|----2-------------|-2--0-------------|
E|-0----------------|-------------3----|

   *     *     *      *     *     *      *     *     *      *     *     *
e|------------------|------------------|------------------|------------------|
B|----------0-------|-3p2p0-2b----0--0-|------------------|-3p2p0-2b----0----|
G|---4------4-------|-4p2p0-2b----0--4-|-------x----------|-4p2p0-2b----0--4-|
D|---2-2-2--2-------|----------------2-|-------x--2-------|----------------2-|
A|---2-2-2--2-------|------------------|----2--x----------|------------------|
E|-0---0------------|------------------|-0-----x--------0-|------------------|
                                         PM--------------|

   *     *     *      *     *     *      *     *     *      *     *     *
e|------------------|------------------|------------------|-------------0--0-|
B|------------------|-3p2p0-2b----0--0-|------------------|-------------0--0-|
G|-------4----------|-4p2p0-2b----0----|-------4--4-------|-------------2--2-|
D|-------0--2-------|------------------|----2--0--2-------|----0-----2-------|
A|----2-------------|------------------|------------------|-------0----------|
E|-0--------------0-|------------------|-0--------------0-|-3----------------|
   PM--------------|                     PM--------------|

   *     *     *      *     *     *
e|-------0----------|-0--0--------0----|
B|-------0----------|-0--0--------0----|
G|-------2----------|-2--2--------2----|
D|-----2----------2-|-----------2----0-|
A|-------------0----|------------------|
E|------------------|------------------|

   *     *     *      *     *     *      *     *     *      *     *     *
e|-----------0------|------------------|-----------0------|------------------|
B|-------------0----|------------------|-------------0----|------------------|
G|---------0------0-|----2-------------|---------0------0-|----2-------------|
D|-------4-----2----|----------2-----0-|-------4-----2----|----------2-----0-| (x2)
A|----2-------------|-2--0-------------|----2-------------|-2--0-------------|
E|-0----------------|-------------3----|-0----------------|-------------3----|

   *     *     *      *     *     *      *     *     *      *     *     *
e|-------0----------|------------------|-------0----------|------------------|
B|---------0---3----|----2-------------|---------3---3----|----2-------------|
G|-----------5----5-|----0---h2p0----0-|-----------5----5-|----0---h2p0----0-|
D|----2--------5----|-0-----------4----|----2--------5----|-0-----------4----|
A|-0----------------|------------------|-0----------------|------------------|
E|------------------|------------------|------------------|------------------|

   *     *     *      *     *     *      *     *     *      *     *     *
e|-----------0------|------------------|-----------0------|------------------|
B|-------------0----|------------------|-------------0----|------------------|
G|---------0------0-|----2-------------|---------0------0-|----2-------------|
D|-------4-----2----|----------2-----0-|-------4-----2----|----------2-----0-|
A|----2-------------|-2--0-------------|----2-------------|-2--0-------------|
E|-0----------------|-------------3----|-0----------------|-------------3----|

   *     *     *      *     *     *      *     *     *      *     *     *
e|-------0----------|------------------|------------------|------------------|
B|---------3---3----|----2-------------|-0----------------|------------------|
G|-----------5----5-|----0---h2p0------|-0---------------2|p0---0------------|
D|----2--------5----|-0-----------4----|------------------|---4--------------|
A|-0----------------|------------------|-2-----------3----|-------2----------|
E|------------------|------------------|------------------|-------------3----|

[4/4]
   *     *     *     *      *     *     *     *
e|----------0----(0)-0----|----------0-------------|
B|-------0--0----(0)-0----|------------------------|
G|---4-4-4--4--------4----|-7-----7----------------|
D|---2-2-2--2--------2--2-|---0---------------0----|
A|---2---------------2----|-9---9----------9-------|
E|-0-----------------0----|----------------------7-|
                     s

   *     *     *     *      *     *     *     *
e|----------0--------0----|----------0-------------|
B|-------0--0--------0----|------------------------|
G|---4-4-4--4--------4----|-------7----------------|
D|---2-2-2--2--------2--2-|---0---------------0----|
A|---2---------------2----|-----9----------9-------|
E|-0-----------------0----|-7--------------------7-|
                     s

   *     *     *     *      *     *     *     *
e|----------0--------0----|---------0--------------|
B|-------0--0--------0----|---------0--------------|
G|---4-4-4--4--------4----|-7-----7----------------|
D|---2-2-2--2--------2--2-|---0---------------0----|
A|---2---------------2----|-9---9----------9-------|
E|-0-----------------0----|----------------------7-|
                     s

   *     *     *     *      *     *     *     *
e|----------0-----0-------|---------0--------------|
B|-------0--0-----0-------|---------0--------------|
G|---4-4-4--4-----4-------|-------7----------------|
D|---2-2-2--2-----------2-|---0---------------0----|
A|---2--------------------|-----9----------9-------|
E|-0----------------------|-7--------------------7-|


   *     *     *     *      *     *     *     *
e|----------0-------------|-------0--------0-------|
B|------------------------|-------0--0-----0-------|
G|-4-----4----------------|-------4--4-------------|
D|---7------------7-------|-2-2-2-2--2-------------|
A|-----7----------------7-|-2-2-2-------------0----|
E|-5-----------------5----|-0--------0-------------|
                                              s

   *     *     *     *
e|----------0-------------|
B|------------------------|
G|-4-----4----------------|
D|---7------------7-------|
A|-----7----------------7-|
E|-5-----------------5----|

[3/4]
   *     *     *      *     *     *
e|-------0--------0-|-0----------------|
B|-------0--0----/5-|-3-----0----------|
G|-------4--4-------|----4--2*---------|        * = 2h4p2p0
D|-2-2-2------------|-------------2-p0-|
A|-2-2-2------------|------------------|
E|-0--------0-------|------------------|


   *     *     *      *     *     *      *     *     *      *     *     *
e|------------------|------------------|------------------|------------------|
B|-------0----------|-3p2p0-2b----0----|------------------|-3p2p0-2b----0----|
G|-------4--4-------|-4p2p0-2b----0----|-------x----------|-4p2p0-2b----0--4-|
D|----2--0--2-------|----------------2-|-------x--2-------|----------------2-|
A|----2-------------|------------------|----2--x----------|------------------|
E|-0--------------0-|------------------|-0-----x--------0-|------------------|
   PM--------------|                     PM--------------|

   *     *     *      *     *     *      *     *     *      *     *     *
e|------------------|------------------|------------------|------------------|
B|------------------|-3p2p0-2b----0--0-|------------------|-3p2p0-2b----0----|
G|-------4----------|-4p2p0-2b----0--4-|-------4--4-------|-4p2p0-2b----0--4-|
D|-------0--2-------|------------------|----2--0--2-------|----------------2-|
A|----2-------------|------------------|------------------|------------------|
E|-0--------------0-|------------------|-0--------------0-|------------------|
   PM--------------|                     PM--------------|

   *     *     *      *     *     *
e|----------------0-|------------------|
B|---------------/5-|-3----------------|
G|-------4--4-------|----4--2*---------|        * = 2h4p2p0
D|-------0--2-------|-------------2-p0-|
A|----2-------------|------------------|
E|-0----------------|------------------|
  PM---------|

   *     *     *      *     *     *      *     *     *      *     *
e|-----------------3|-5p3--------------|------------------|------------|
B|----------------3-|-----3------------|-------------0----|------------|
G|-------4-------3--|-------4\2/4------|\2----------0-----|----4--4----|
D|-------0--2-------|------------------|------------------|-2--0--2----|
A|----2-------------|------------------|------------------|-2--0-------|
E|-0----------------|------------------|----------------0-|----------0-|
   PM--------|                                          PM------------|

   *     *     *      *     *     *      *     *     *
e|------------------|------------------|------------------|
B|-3p2p0-2b----0----|------------------|-3p2p0-2b----0----|
G|-4p2p0-2b----0----|-------x----------|-4p2p0-2b----0--4-|
D|----------------2-|-------x--2-------|----------------2-|
A|------------------|----2--x----------|------------------|
E|------------------|-0-----x--------0-|------------------|
                      PM--------------|

[4/4]
   *     *     *     *      *     *     *     *
e|------------------------|-------0---0-------0----|
B|------------------------|-------0---0-------0----|
G|-------x----------------|-------2---2-------2----|
D|-------x--2-------------|----2-----------2-------|
A|----2--x----------------|-0----------------------|
E|-0-----x--------0--3b---|------------------------|
   PM--------|

   *     *     *     *      *     *     *     *
e|-------0---0-------0----|------------------------|
B|-------0---0-------0----|-------0---0------------|
G|-------2---2-------0h2-0|-------4---4------------|
D|----2----------2--------|-----2-2---2------------|
A|-0----------------------|-----2-----2----2-------|
E|------------------------|-0-----------------3b---|

   *     *     *     *      *     *     *     *
e|-------0---0-------0----|-------0---0-------0----|
B|-------0---0-------0----|-------0---0-------0----|
G|-------2---2-------2--0-|-------2---2-------0h2--|
D|----2----------2--------|----2-----------2-------|
A|-0----------------------|-0----------------------|
E|------------------------|------------------------|

[3/4]
   *     *     *      *     *     *      *     *     *      *     *     *
e|-----------0------|------------------|-----------0------|------------------|
B|-------------0----|------------------|-------------0----|------------------|
G|---------0------0-|----2-------------|---------0------0-|----2-------------|
D|-------4-----2----|----------2-----0-|-------4-----2----|----------2-----0-| (x2)
A|----2-------------|-2--0-------------|----2-------------|-2--0-------------|
E|-0----------------|-------------3----|-0----------------|-------------3----|

   *     *     *      *     *     *      *     *     *      *     *     *
e|-------0----------|------------------|-------0----------|------------------|
B|---------0---3----|----2-------------|---------3---3----|----2-------------|
G|-----------5----5-|----0---h2p0----0-|-----------5----5-|----0---h2p0----0-|
D|----2--------5----|-0-----------4----|----2--------5----|-0-----------4----|
A|-0----------------|------------------|-0----------------|------------------|
E|------------------|------------------|------------------|------------------|

   *     *     *      *     *     *      *     *     *      *     *     *
e|-----------0------|------------------|-----------0------|------------------|
B|-------------0----|------------------|-------------0----|------------------|
G|---------0------0-|----2-------------|---------0------0-|----2-------------|
D|-------4-----2----|----------2-----0-|-------4-----2----|----------2-----0-|
A|----2-------------|-2--0-------------|----2-------------|-2--0-------------|
E|-0----------------|-------------3----|-0----------------|-------------3----|

   *     *     *      *     *     *      *     *     *      *     *     *
e|-------0----------|------------------|------------------|------------------|
B|---------3---3----|----2-------------|-0----------------|------------------|
G|-----------5----5-|----0---h2p0------|-0---------------2|p0---0------------|
D|----2--------5----|-0-----------4----|------------------|---4--------------|
A|-0----------------|------------------|-2-----------3----|-------2----------|
E|------------------|------------------|------------------|-------------3----|

[4/4]
   *     *     *     *      *     *     *     *
e|------------------------|------------------------|
B|-------0---0-------0---0|------------------------|
G|-------4---4-------4---4|------------------------|
D|-------2---2-------2---2|-------2----------------|
A|-----2-2---2-------2---2|-------2h0---0----------|
E|-0---------------0------|-----0----3-----3b------|

[3/4]
   *     *     *      *     *     *      *     *     *      *     *     *      *     *
e|------------------|------------------|------------------|------------------|------------|
B|-------0----------|-3p2p0-2b----0----|------------------|-3p2p0-2--0-------|------------|
G|-------4--4-------|-4p2p0-2b-------4-|-------x----------|-4p2p0-2b-0-----2-|------------|
D|----2--0--2-------|----------------2-|-------x--2-------|------------------|----2-----0-|
A|----2-------------|------------------|----2--x----------|-------------2--0-|------------|
E|-0--------------0-|------------------|-0-----x--------0-|------------------|-------3----|
   PM--------------|                     PM--------------|

   *     *     *      *     *     *      *     *     *      *     *     *
e|-----------0------|------------------|-----------0------|------------------|
B|-------------0----|------------------|-------------0----|------------------|
G|---------0------0-|----2-------------|---------0------0-|----2-------------|
D|-------4-----2----|----------2-----0-|-------4-----2----|----------2-----0-|
A|----2-------------|-2--0-------------|----2-------------|-2--0-------------|
E|-0----------------|-------------3----|-0----------------|-------------3----|

   *     *     *      *     *     *      *     *     *      *     *     *
e|-----------0------|------------------|-----------0------|------------------|
B|-------0-----0----|------------------|-------0-----0----|----0-------------|
G|---------0------2-|-------------x----|---------0------4-|----4-------------|
D|------------------|----------0--x--2-|------------------|----2-----0-----0-|
A|----2-------------|----0--------x----|----2-------------|----2-----0-------|
E|-0----------------|------------------|-0----------------|-------------3b---|

   *     *     *      *     *     *      *     *     *      *     *     *
e|-----------0------|------------------|------------------|------------------|
B|-------0-----0----|-0--0-------------|------------------|------------------|
G|---------0------2-|----4-------------|-------x----------|-x--------------0-|
D|------------------|----2-----------0-|----0--x--2-----0-|-x--2-----0--x--2-|
A|----2-------------|----------0-------|----2--x--------2-|-x--------2--x----|
E|-0----------------|-------------3b---|-0----------------|------------------|

   *     *     *      *     *     *      *     *     *      *     *     *
e|------------------|------------------|------------------|------------------|
B|------------------|------------------|------------------|------------------|
G|-------x----------|-x-----------x----|-------x----------|-x----------------|
D|----0--x--2-----0-|-x--2-----0--x--2-|----0--x--2-----0-|-x--2-----0--x--2-|
A|----2--x----------|-x--2-----2--x----|-------x--------2-|-x--2--------x--2-|
E|------------------|------------------|------------------|------------------|


***********************************

| *   Rythm
| h   Hammer-on
| p   Pull-off
| x   Dead note
| s   Slap strings
| b   Bend
| /   Slide up
| \   Slide down
| PM  Palm mute

***********************************
Suggest correction
Creating personal tab
Creating personal tab
You can edit any tab online and save it as your Personal.

You can edit, replace or remove any tab part or add personal notes – all changes will be seen only by you.

Personal tabs can be accessed anytime from any device, even offline.
Learn more »
Give kudos to tab author, rate the tab!
1 2 3 4 5
comments
print report bad tab
guest
You may want to rate the tab now too:
select rating
Wanna post a correction for this tab? Suggest correction