Oops, an error
Loading. Please wait.

Nicola Tab

version 1
version 1

Whole song

Interactive

2,471 views 21 this week
no commentswrite comment
1 2 3 4 5
please rate
add to favorites
launch autoscroll
font size
0
reset
how to read this tab
guitar tuner
Tab Pro tools
  • play this tab
  • loop segment
  • change instrument
  • show fretboard
  • metronome
×
Best way to learn
"Nicola"
Autoscroll
slow
fast
+/-
esc
set tempo
stop
Difficulty
intermediate
Nicola - Bert Jansch

Some parts were difficult to comprehend, mostly when the other instruments were playing
with Jansch. Also, the second to last chord is bizarre, it seems to fit but I had a hard
figuring out what chord it was. The way I play it is by barring the first four strings 
my thumb and using my middle finger to hit the F# on high E. Enjoy.

e-----------7-8-7--------------------7-8-7--------------------7-8-7-------|
b--8-7-8-10-----------------8-7-8-10-----------------8-7-8-10-------------|
g---------------0-----0------------------0-----0------------------0-----0-|
d-------------------------------------------------------------------------|
a--7-----9----------------9-7-----9----------------9-7-----9--------------|
e-------------------------------------------------------------------------|

e------------7-8-7---------------------------2-3-3-2-------0-2-0---0-----x-|
b---8-7-8-10-------10-8-10-8-7-8-7-5-7-5-3-5---------0-1-3-------3-0-----x-|
g----------------0-------------------------------------------------0-----x-|
d------------------------------------------------------------------2-----x-|
a-9-7-----9-------------9------7-----5-----3-----2-----0-----2-----2-----x-|
e------------------------------------------------------------------0-----x-|

e------------7-8-7--------------------7-8-7-------------------------------|
b---8-7-8-10-----------------8-7-8-10-------------------------------------|
g----------------0-----0------------------0-----0-------------------------|
d-------------------------------------------------------------------------|
a-9-7-----9----------------9-7-----9--------------------------------------|
e-------------------------------------------------------------------------|

e---8-7-8-10-7---------------------3-----0-------3----0-------------------|
b--------------8-8-7-8-10------5----5-7----3-5----5-7---3-5---------------|
g---------0---------------11-7-0-------------0------------0---------------|
d-9-7---------------------------------4-------------4---------------------|
a----------------7-----9--------------------------------------------------|
e------------------------------0-------------0------------0---------------|

e------------------12---10------------------------------------------------|
b-----8---10--12-------------12---8---8---8p7p5----5---8---7p5-----5------|
g---------------------------------9------------7---0-----------7---0------|
d-9---------------------------------------0----------------0--------------|
a-----7---9---7---------9-------------------------------------------------|
e--------------------------------------------------0---------------0------|

e------------------12---10------------------------------------------------|
b-----8---10--12-------------12---8---8---8p7p5----5---8---7p5-----5------|
g---------------------------------9------------7---0-----------7---0------|
d-9---------------------------------------0----------------0--------------|
a-----7---9---7---------9-------------------------------------------------|
e--------------------------------------------------0---------------0------|

e---------5---7-------------------10---12---------------------------------|
b-----8-------------------------------------------------------------------|
g-----------------4p2p0---2---0-------------------------------------------|
d-9-----------------------------------------------------------------------|
a-----7---5---5-------------------9---------------------------------------|
e-------------------------------------------------------------------------|

e-----5p3-2---------------------------------------------------------------|
b-------------3---5---8p5-7p5-----5---8p5-7p5-----5-----------------------|
g-----------------0-----------7---0-----------7---0-----------------------|
d-2-------0---------------0---------------0-------------------------------|
a-------------------------------------------------------------------------|
e-----------------0---------------0---------------0-----------------------|

e--------------------------------------3p2h3---5----3p2-------0-----------|
b-----8p7h8---7-------------------------------------------3---0-----------|
g-----------------7---4---------------------------------------0-----------|
d-9-----------------------------------------------------------2-----------|
a-----7-------5-------2------------2---0----------------------2-----------|
e--------------------------0h2h3---------------3----2---------0-----------|

e-------3--5--5/7--0------------------------------------------------------|
b-------------3/5---------------------------------------------------------|
g----------------------4p0--2p0-------------------------------------------|
d--------------0-------2----0----4p0--------------------------------------|
a-----2--------------------------0----------------------------------------|
e--0----------------------------------------------------------------------|

e-------3--5--5/7--0-----------------------------------------------|
b-------------3/5--------------------------------------------------|
g---------------------4p0--2p0-------------------------------------|   (x6)
d-2-----------0-------2----0----4p0--------------------------------|
a----2--------------------------0----------------------------------|
e-0----------------------------------------------------------------|

e-------------------------------------------------------------------------|
b-------------0--------3-----------------------0--3p2---------------------|
g-------------0--2--4-----4p2p0-------------0----------0------------------|
d-------------------------------4--0-----2-------------2h4----------------|
a----------2--------------2-----------------------------------------------|
e-0--2--3-----------------------------0-----------------------------------|

e-------3--5--5/7--0-----------------------------------------------|
b-------------3/5--------------------------------------------------|
g---------------------4p0--2p0-------------------------------------|   (x18)
d-2-----------0-------2----0----4p0--------------------------------|
a----2--------------------------0----------------------------------|
e-0----------------------------------------------------------------|

e-0-----------2-----------3-----------5-----------------------------------|
b-------------------------------------------------------------------------|
g-4--2--0-----2--0--------------------------------------------------------|
d-2--------4--0-----4--0--2--0--------------------------------------------|
a-------------------------------4--0--2--0--------------------------------|
e-------------------------------------------3--2--------------------------|

e-/7--5--3--2--0--2--3--2--0-----0----------------------------------------|
b-----------------------------4--0----------------------------------------|
g--------------------------------0----------------------------------------|
d--------------------------------2----------------------------------------|
a--------------------0-----2-----2----------------------------------------|
e-0------------3-----------------0----------------------------------------|

Ending

e-----------7-8-7--------------------7-8-7--------------------------------|
b--8-7-8-10-----------------8-7-8-10--------------------------------------|
g---------------0-----0------------------0-----0--------------------------|
d-------------------------------------------------------------------------|
a--7-----9----------------9-7-----9---------------------------------------|
e-------------------------------------------------------------------------|

e------------7-8-7---------------------------2-3-3-2-------0-2-0---2---0--|
b---8-7-8-10-------10-8-10-8-7-8-7-5-7-5-3-5---------0-1-3-------3-0---0--|
g----------------0-------------------------------------------------2---0--|
d------------------------------------------------------------------2---2--|
a-9-7-----9-------------9------7-----5-----3-----2-----0-----2-----2---2--|
e------------------------------------------------------------------2---0--|
comments
We did not receive enough feedback on this tab! Please rate:
print report bad tab
1 2 3 4 5
I want to post or [tab]
guest
You may want to rate the tab now too:
select rating
Please do not post tabs as comments. Select "correction" instead!