Oops, an error
Loading. Please wait.

She Moved Through The Fair Tab

16,484 views 15 this week
no commentswrite comment
1 2 3 4 5
x 8
add to favorites
launch autoscroll
font size
0
reset
how to read this tab
guitar tuner
×
Best way to learn
"She Moved Through The Fair"
Autoscroll
slow
fast
+/-
esc
set tempo
stop
Capo
2nd fret
Tabbed by Jamie Phillips (jamiephillips22@hotmail.com)

Artist: Bert Jansch
Track title: She Moved Through The Fair
Album: Toy Balloon
Tuning: EADGBE
Capo: 2nd fret

Berts take on She Moved Through The Fair - really haunting. Really great sounding guitar.
This is quite easy to play - I've only tabbed out the intro before he starts singing as
the rest of the song only consists of these parts anyway. As usual though Bert displays a
little variation and improvisation as he goes through the verses, so check with the
recording if you want to play it note for note. I left a couple of the trills/graces out
for ease of reading.

Rhythm: 4/4 (fast)

e|-----------------------|-----------------------|
B|------------------0----|--1------------1-------|
G|----------0----2-------|----------0------------|
D|-------0----------0----|-------3----------3----|
A|-----------------------|-----------------------|
E|--3--------------------|--1--------------------|

e|-------------------------|-----------------------|
B|--1--------0h-1----------|----------3------------|
G|-----0-----------0-------|---------------0-------|
D|--------3-----------3----|-------0----------0----|
A|-------------------------|-----------------------|
E|--1-----------1----------|--3--------------------|

e|-------------------------|-----------------------|-----------------------|
B|----------3h-0-----------|----------1------------|----------1------------|
G|----------------0-----0--|----------0----0-------|----------0----0-------|
D|-------0-----------0-----|-------3----------3----|-------3----------3----|
A|-------------------------|-----------------------|-----------------------|
E|--3----------------------|--1--------------------|--1--------------------|

e|-----------------------|---------------0-------|--1--------3------------|
B|-----------------------|----------3------------|-----1----------1-------|
G|---------------0-------|------------------0----|--------2----------2----|
D|----------5------------|-------0---------------|------------------------|
A|-------5----------5----|-----------------------|------------------------|
E|--3--------------------|--3--------------------|--1---------------------|

e|-----------3------------|--0-------------------|-----------------------|
B|-----1----------1-------|----------3-----------|----------3----0-------|
G|--------2----------2----|----------------------|-----------------------|
D|------------------------|-------0---------0----|-------0----------0----|
A|------------------------|----------------------|-----------------------|
E|--1---------------------|--3-------------------|--3--------------------|

e|-----------------------|------------------------|-----------------------|
B|--1------------1-------|--1--------1------------|----------3------------|
G|----------0------------|-----0----------0-------|---------------0-------|
D|-------3----------3----|--------3----------3----|-------0----------0----|
A|-----------------------|------------------------|-----------------------|
E|--1--------------------|--1---------------------|--3--------------------|

e|---------------0-------|--1--------3------------|-----------3------------|
B|----------3------------|-----1----------1-------|-----1----------1-------|
G|------------------0----|--------2----------2----|--------2----------2----|
D|-------0---------------|------------------------|------------------------|
A|-----------------------|------------------------|------------------------|
E|--3--------------------|--1---------------------|--1---------------------|

e|--0-------------------|-----------------------|-----------------------|
B|----------3-----------|----------3----0-------|--1------------1-------|
G|----------------------|-----------------------|----------0------------|
D|-------0---------0----|-------0----------0----|-------3----------3----|
A|----------------------|-----------------------|-----------------------|
E|--3-------------------|--3--------------------|--1--------------------|

e|-----------------------|-----------------------|-----------------------|
B|----------0----1-------|----------3------------|------------------0----|
G|-----------------------|---------------0-------|----------0----2-------|
D|-------3----------3----|-------0----------0----|-------0----------0----|
A|-----------------------|-----------------------|-----------------------|
E|--1--------------------|--3--------------------|--3--------------------|

e|-----------------------|------------------------|------------------------|
B|--1------------1-------|--1--------0h---1-------|-----3-----3------------|
G|----------0------------|-----0----------0-------|----------------0-------|
D|-------3----------3----|--------3----------3----|--------0----------0----|
A|-----------------------|------------------------|------------------------|
E|--1--------------------|--1---------------------|--3---------------------|

e|------------------------|-----------------------|-----------------------|
B|----------3h-0----------|----------1------------|----------1------------|
G|----------------0-------|----------0----0-------|----------0----0-------|
D|-------0-----------0----|-------3----------3----|-------3----------3----|
A|------------------------|-----------------------|-----------------------|
E|--3---------------------|--1--------------------|--1--------------------|

e|-----------------------|-----------------------|------------------------|
B|-----------------------|------------------0----|--1--------1------------|
G|----------0----0-------|----------0----2-------|-----0----------0-------|
D|-------0----------0----|-------0----------0----|--------3----------3----|
A|-----------------------|-----------------------|------------------------|
E|--3--------------------|--3--------------------|--3---------------------|

e|------------------------|------------------------|-----------------------|
B|--1--------1------------|--1--------1------------|----------1------------|
G|-----0----------0-------|-----0----------0-------|---------------0-------|
D|--------3----------3----|--------2----------2----|-------2----------2----|
A|------------------------|------------------------|-----------------------|
E|--3---------------------|--3---------------------|--3--------------------|

e|-----------------------|-----------------------||
B|-----------------------|-----------------------||
G|----------0----0-------|----------0----0-------||
D|-------0----------0----|-------0----------0----||
A|-----------------------|-----------------------||
E|--3--------------------|--3--------------------||

************************************

| h  Hammer-on

************************************
Suggest correction
comments
print report bad tab
guest
You may want to rate the tab now too:
select rating
Wanna post a correction for this tab? Suggest correction