Oops, an error
Loading. Please wait.

I Want To Tab

17,690 views 12 this week
7 commentsread comments
1 2 3 4 5
x 7
add to favorites
launch autoscroll
font size
0
reset
how to read this tab
guitar tuner
×
Best way to learn
"I Want To"
Autoscroll
slow
fast
+/-
esc
set tempo
stop
By: Eleda

[Intro]
E|---------------------------------------------|
B|---------------------------------------------|
G|------------------------4--4-4-4---4--4-4-4--|
D|--5--5-5-5---5--5-5-5---4--4-4-4---4--4-4-4--|
A|--5--5-5-5---5--5-5-5---2--2-2-2---2--2-2-2--|
E|--3--3-3-3---3--3-3-3------------------------|

   I.....................want you .............so...much
E|-------------------------------------------------------|
B|-------------------------------------------------------|
G|------------------------4--4-4-4---4--4-4-4------------|
D|--5--5-5-5---5--5-5-5---4--4-4-4---4--4-4-4----9----5--|
A|--5--5-5-5---5--5-5-5---2--2-2-2---2--2-2-2----9----5--|
E|--3--3-3-3---3--3-3-3--------------------------7----3--|

I want you so much
And I want you so much
And I want you so much
And I want you so much

Oooh
Oooh

I miss you so much
And I miss you so much


[Note] (For this part the chords are the same)
G
I want to, go back to
Bm                     Em     C
The first time, the first place [x4]
Suggest correction
comments
print report bad tab
7 comments total. Showing first comments.
+1 reply
Joshua1207 191 Dec 20, 2010 11:47 AM

You got the second power chord wrong in the intro. It should be a B powerchord not an F#.

0 reply
littlemanson 124 Jan 29, 2011 06:08 AM

Ah yeah! My bad.

0 reply
littlemanson 124 Jan 29, 2011 06:11 AM

CORRECTION: 

E---------------------------------------------|
B---------------------------------------------|
G------------------------4--4-4-4---4--4-4-4--|
D--5--5-5-5---5--5-5-5---4--4-4-4---4--4-4-4--|
A--5--5-5-5---5--5-5-5---2--2-2-2---2--2-2-2--|
E--3--3-3-3---3--3-3-3------------------------|

I.....................want you .............so...much
E-------------------------------------------------------|
B-------------------------------------------------------|
G------------------------4--4-4-4---4--4-4-4------------|
D--5--5-5-5---5--5-5-5---4--4-4-4---4--4-4-4----9----5--|
A--5--5-5-5---5--5-5-5---2--2-2-2---2--2-2-2----9----5--|
E--3--3-3-3---3--3-3-3--------------------------7----3--|

guest
You may want to rate the tab now too:
select rating
Wanna post a correction for this tab? Suggest correction