Oops, an error
Loading. Please wait.

Summer Mood Tab

2,414 views 1 this week
no commentswrite comment
1 2 3 4 5
excellent!
x 4
add to favorites
launch autoscroll
font size
0
reset
how to read this tab
guitar tuner
Tab Pro tools
  • play this tab
  • loop segment
  • change instrument
  • show fretboard
  • metronome
Autoscroll
slow
fast
+/-
esc
set tempo
stop
Contributor
So this is my first tab I've ever made, and I
really hope I did good on it. I figured this out the
other day, by just jammin' on my guitar and I thought
I'd share it with everyone because there are no
tabs of this song on here yet.. Feedback please?(:

                       Summer Mood by Best Coast-- tabs
         ___________________________________________________________

    "Walkin' away..    Talkin' all day.."
e|-----------------------------------------------------------------|
B|-----------------------------------------------------------------|
G|-----------------------------------------------------------------|
D|--555555---222222---555555---222222------------------------------|
A|--555555---222222---555555---222222------------------------------|
E|--333333---000000---333333---000000------------------------------|

 "Ooh I want you.." x2
e|-----------------------------------------------------------------|
B|-----------------------------------------------------------------|
G|-----------------------------------------------------------------|
D|--777777---555555---777777---555555------------------------------|
A|--555555---333333---333333---333333------------------------------|
E|--555555---333333---333333---333333------------------------------|

    "Walkin' away..    Talkin' all day.."
e|-----------------------------------------------------------------|
B|-----------------------------------------------------------------|
G|-----------------------------------------------------------------|
D|--555555---222222---555555---222222------------------------------|
A|--555555---222222---555555---222222------------------------------|
E|--333333---000000---333333---000000------------------------------|

    "Ooh I want you.." x2               "But theres"
e|-----------------------------------------------------------------|
B|-----------------------------------------------------------------|
G|-----------------------------------------------------------------|
D|--777777---555555---777777---555555------------------------------|
A|--555555---333333---333333---333333------------------------------|
E|--555555---333333---333333---333333------------------------------|

____________________________________________________________________
Chorus:             "somethin' about the summer" x3                |
e|-----------------------------------------------------------------|
B|-----------------------------------------------------------------|
G|--------------------7-7-7---5-5-5--------------------------------|
D|--------------------7-7-7---5-5-5---555555-----x3----------------|
A|--------------------5-5-5---3-3-3---555555-----------------------|
E|------------------------------------333333-----------------------|
___________________________________________________________________|

    "Walkin' away..    Talkin' all day.."
e|-----------------------------------------------------------------|
B|-----------------------------------------------------------------|
G|-----------------------------------------------------------------|
D|--555555---222222---555555---222222------------------------------|
A|--555555---222222---555555---222222------------------------------|
E|--333333---000000---333333---000000------------------------------|

    "I can't stand this.." x2
e|-----------------------------------------------------------------|
B|-----------------------------------------------------------------|
G|-----------------------------------------------------------------|
D|--777777---555555---777777---555555------------------------------|
A|--555555---333333---333333---333333------------------------------|
E|--555555---333333---333333---333333------------------------------|

    "Walkin' away..    Talkin' all day.."
e|-----------------------------------------------------------------|
B|-----------------------------------------------------------------|
G|-----------------------------------------------------------------|
D|--555555---222222---555555---222222------------------------------|
A|--555555---222222---555555---222222------------------------------|
E|--333333---000000---333333---000000------------------------------|

    "I can't stand this.." x2           "But theres"
e|-----------------------------------------------------------------|
B|-----------------------------------------------------------------|
G|-----------------------------------------------------------------|
D|--777777---555555---777777---555555------------------------------|
A|--555555---333333---333333---333333------------------------------|
E|--555555---333333---333333---333333------------------------------|

____________________________________________________________________
Chorus:             "somethin' about the summer" x3                |
e|-----------------------------------------------------------------|
B|-----------------------------------------------------------------|
G|--------------------7-7-7---5-5-5--------------------------------|
D|--------------------7-7-7---5-5-5---555555-----x3----------------|
A|--------------------5-5-5---3-3-3---555555-----------------------|
E|------------------------------------333333-----------------------|
___________________________________________________________________|

  "That makes me.. Moooooooooooooody." x4
e|-----------------------------------------------------------------|
B|-----------------------------------------------------------------|
G|-----------------------------------------------------------------|
D|--------------777777777777--555555555555-------------------------|
A|--------------555555555555--333333333333-------------------------|
E|--------------555555555555--333333333333-------------------------|

    "Ahh, Ahh, Ahh..          Ahh, Ahh, Ahh.."
e|-----------------------------------------------------------------|
B|-----------------------------------------------------------------|
G|---7-7-7---5-5-5------------7-7-7---5-5-5------------------------|
D|---7-7-7---5-5-5---555555---7-7-7---5-5-5---555555----x2---------|
A|---5-5-5---3-3-3---555555---5-5-5---3-3-3---555555---------------|
E|-------------------333333-------------------333333---------------|
comments
print report bad tab
I want to post or [tab]
guest
You may want to rate the tab now too:
select rating
Please do not post tabs as comments. Select "correction" instead!