Oops, an error
Loading. Please wait.

The Only Place Tab

6,807 views 3 this week
no commentswrite comment
1 2 3 4 5
x 12
add to favorites
launch autoscroll
font size
0
reset
how to read this tab
guitar tuner
Autoscroll
slow
fast
+/-
esc
set tempo
stop
Help us to improve Ultimate-Guitar.com Take our survey!
×
Author
Best Coast - The Only Place
From the album The Only Place (mexican summer 2012).

Tabbed by Isaac Murguia, July 2012.
YouTube: Goadiroth

INTRO CHORDS:
e|-7---11---7---|
B|-8---12---8---|
G|-7---11---9---|
D|--------------|
A|--------------|
E|--------------|

RIFF 1:
e|-3------3---|-5------5---|-0------0---|----0-----0-|
B|----0-----0-|----0-----0-|----3-----3-|------3-----|
G|------0-----|------0-----|------0-----|-0------0---|
D|------------|------------|------------|------------|
A|------------|------------|------------|------------|
E|------------|------------|------------|------------|

e|-3------3---|-5------5---|-0------0---|----0-------|
B|----0-----0-|----0-----0-|----3-----3-|------3-----|
G|------0-----|------0-----|------0-----|-0------0-0-|
D|------------|------------|------------|------------|
A|------------|------------|------------|------------|
E|------------|------------|------------|------------|

VERSE: "intro chords" x2

PRE-CHORUS: "At the mountains, at the birds..."
e|-----------------|-----------------|-----------------|-----------------|
B|-----------------|-----------------|-----------------|-----------------|
G|-----------------|-----------------|-----------------|-----------------|
D|-----------------|---9---9---5---5-|-----------------|---9---9---5---5-|
A|---5---5---5---5-|-7---7---3---3---|---5---5---5---5-|-7---7---3---33--|
E|-3---3---3---3---|-----------------|-3---3---3---3---|-----------------|

CHORUS A:
e|-7-\-3--7-\-3-----------------------|-7-\-3--7-\-3-----------------------|
B|-7-\-3--7-\-3-----------------------|-7-\-3--7-\-3-----------------------|
G|------------------------------------|------------------------------------|
D|---------------7/9-99-99--7/9-99-99-|---------------7/9-99-99--7/9-999-7-|
A|------------------------------------|------------------------------------|
E|------------------------------------|------------------------------------|

Repeat VERSE
Repeat PRE-CHORUS

CHORUS B:
e|-7-\-3--7-\-3-----------------------|
B|-7-\-3--7-\-3-----------------------|
G|------------------------------------|
D|---------------7/9-99-99--7/9-99-99-| (x2)
A|------------------------------------|
E|------------------------------------|

CHORUS C:
e|-------------------------------------------------|
B|-------------------------------------------------|
G|-----------7/9-99-99-----------9/11-11-11--11-11-|
D|-7/9-99-99-----------7/9-99-99-------------------|
A|-------------------------------------------------|
E|-------------------------------------------------|

e|--------------------------------------------|
B|--------------------------------------------|
G|-----------------------7/9-99-99--7/9-99-99-|
D|-7/9-99-99--7/9-99-99-----------------------|
A|--------------------------------------------|
E|--------------------------------------------|

RIFF 1 VARIATION:
e|-3------3---|-5------5---|-0------0---|----0-------|
B|----0-----0-|----0-----0-|----3-----3-|------3-----|
G|------0-----|------0-----|------0-----|-0------0---|
D|------------|------------|------------|------------| (x2)
A|------------|------------|------------|------------|
E|------------|------------|------------|------------|

e|-3------3---|-5------5---|-0--------0-|------0-----|
B|----0-----0-|----0-----0-|----3---3---|----3---3---|
G|------0-----|------0-----|------0-----|-0--------0-|
D|------------|------------|------------|------------| (x2)
A|------------|------------|------------|------------|
E|------------|------------|------------|------------|

BRIDGE:
e|-------------------------|-------------------------|
B|-------------------------|-------------------------|
G|-----0-----0-----0-----0-|-------------------------|
D|-0h2---0h2---0h2---0h2---|-----0-----0-----0-----0-| (x3)
A|-------------------------|-0h2---0h2---0h2---0h2---|
E|-------------------------|-------------------------|

e|-------------------------|-------------------------|
B|-------------------------|-------------------------|
G|-----0-----0-----0-----0-|-------------------------|
D|-0h2---0h2---0h2---0h2---|-------------------------|
A|-------------------------|-0h2---0h2---3h5---3h5---|
E|-------------------------|-------------------------|

Repeat CHORUS B
Repeat CHORUS C

OUTRO:
e|-----------|-----------|-------------------|---------|
B|-----------|-----------|-------------------|---------|
G|-----------|-----------|-9/11-11-11--11-11-|-9-7-----|
D|-7/9-99-99-|-7/9-99-99-|-------------------|-----9-7-| (x2)
A|-----------|-----------|-------------------|---------|
E|-----------|-----------|-------------------|---------|

e|-----------|-----------|-------------------|------------|
B|-----------|-----------|-------------------|------------|
G|-----------|-----------|-9/11-11-11--11-11-|-11-9-7-----|
D|-7/9-99-99-|-7/9-99-99-|-------------------|--------7-9-|
A|-----------|-----------|-------------------|------------|
E|-----------|-----------|-------------------|------------| end.
Suggest correction
comments
print report bad tab
guest
You may want to rate the tab now too:
select rating
Wanna post a correction for this tab? Suggest correction