Oops, an error
Loading. Please wait.

Up All Night Tab

2,835 views 3 this week
no commentswrite comment
1 2 3 4 5
please rate
add to favorites
launch autoscroll
font size
0
reset
how to read this tab
guitar tuner
Autoscroll
slow
fast
+/-
esc
set tempo
stop
Help us to improve Ultimate-Guitar.com Take our survey!
×
Author
Difficulty
novice
First tab so be gentle - any comments/questions/variations welcome. 
Strum pattern - variation of D DU UDU per bar - you can hear it in the song pretty well.
**SR.

Intro
e|------------|------------|------------|------------|
B|------------|------------|------------|------------|
G|------------|------------|------------|------------|
D|--12--------|-----9------|--5---------|--7---------|
A|--12--------|-----9------|--5---------|--7---------|
E|--10--------|-----7------|--3---------|--5---------|  x2


e|------------|------------|------------|------------|
B|------------|------------|------------|------------|
G|--11--------|-----8------|--4---------|--6---------|
D|--12--------|-----9------|--5---------|--7---------|
A|--12--------|-----9------|--5---------|--7---------|  OR Full Bar Chords 
E|--10--------|-----7------|--3---------|--5---------| 

e|--10---------|--7---------|--3------------|--5---------|
B|--10---------|--7---------|--3------------|--5---------|
G|--11---------|--8---------|--4------------|--6---------|
D|--12---------|--9---------|--5------------|--7---------|
A|--12---------|--9---------|--5------------|--7---------| ETC..x6
E|--10---------|--7---------|--3------------|--5---------| 
 You and me   Too good to be  Too true to be  Too dumb to see
That where I live  And where you live Are not the same We're not to blame
Just too crazy  And far to board  And way too lazy   to make it work
So here I am    I'm still alone  I'm still awake   I'm still afraid
I don't know what   day it is    'cause I've been   up all night
I don't know what   week it is   'cause I've been   up all night


e|------------|------------|------------|------------|
B|------------|------------|------------|------------|
G|------------|------------|------------|------------|
D|--5---------|--7---------|--5---------|--7---------|
A|--5---------|--7---------|--5---------|--7---------| x2
E|--3---------|--5---------|--3---------|--5---------|  
I want to see you   I want to see you  I want to see you   I want to see you
Forever and ever    Forever and ever   Forever and ever    Forever


e|--10-----------|--7-----------|--3------------|--5---------|
B|--10-----------|--7-----------|--3------------|--5---------|
G|--11-----------|--8-----------|--4------------|--6---------|
D|--12-----------|--9-----------|--5------------|--7---------|
A|--12-----------|--9-----------|--5------------|--7---------|  x6
E|--10-----------|--7-----------|--3------------|--5---------| 
You and me         Too good to be  Too true to be Too dumb to see
Where I live   And where you live  Are not the same  We're not to blame
Now you're off in another town With another girl   Just sittin' 'round
I'm still here   I'm still alone I'm still awake  I'm still afraid
I don't know what day it is Because I've been up all night
I don't know what week it is  Because I've been up all night


e|------------|------------|------------|------------|
B|------------|------------|------------|------------|
G|------------|------------|------------|------------|
D|--5---------|--7---------|--5---------|--7---------|
A|--5---------|--7---------|--5---------|--7---------|  x2
E|--3---------|--5---------|--3---------|--5---------| 
I want to see you  I want to see you  I want to see you  I want to see you
Forever and ever   Forever and ever   Forever and ever   Forever


e|------------|------------|------------|------------|
B|------------|------------|------------|------------|
G|------------|------------|------------|------------|
D|--5---------|--7---------|--5---------|--7---------|
A|--5---------|--7---------|--5---------|--7---------|  x2
E|--3---------|--5---------|--3---------|--5---------|  
You left me here all alone.  You left me here in the cold.
You left me here by the sea Oh well now all I wish I could see Is you and me.


e|--10---------|--7---------|--3------------|--5---------|
B|--10---------|--7---------|--3------------|--5---------|
G|--11---------|--8---------|--4------------|--6---------|
D|--12---------|--9---------|--5------------|--7---------|
A|--12---------|--9---------|--5------------|--7---------|  x2
E|--10---------|--7---------|--3------------|--5---------|
I don't know what day it is   'cause I've been up all night
I don't know what week it is  'cause I've been up all night


e|------------|------------|------------|------------|
B|------------|------------|------------|------------|
G|------------|------------|------------|------------|
D|--5---------|--7---------|--5---------|--7---------|
A|--5---------|--7---------|--5---------|--7---------|  x2
E|--3---------|--5---------|--3---------|--5---------|  
I want to see you I want to see you I want to see you I want to see you
Forever and ever Forever and ever Forever and ever Forever


e|--10---------|--7---------|--3------------|--5---------|
B|--10---------|--7---------|--3------------|--5---------|
G|--11---------|--8---------|--4------------|--6---------|
D|--12---------|--9---------|--5------------|--7---------|
A|--12---------|--9---------|--5------------|--7---------|  x2
E|--10---------|--7---------|--3------------|--5---------|
Ooooohhhhh                    Ooooohhhhh
Ooooohhhhh                    Ooooohhhhh

e|------------|------------|------------|------------|                  
B|------------|------------|------------|------------|                  
G|------------|------------|------------|------------|                  
D|--5---------|--7---------|--5---------|--7---------|                  
A|--5---------|--7---------|--5---------|--7---------|  x2              
E|--3---------|--5---------|--3---------|--5---------|          
Ooooohhhhh                    Ooooohhhhh
Ooooohhhhh                    Ooooohhhhh

Finish on
|--10--
|--10--
|--11--
|--12--
|--12--
|--10--
Suggest correction
What's this?
You can suggest a correction to this tab. Community and Mods will review your correction and vote to approve or reject it.
comments
We did not receive enough feedback on this tab! Please rate:
print report bad tab
1 2 3 4 5
guest
You may want to rate the tab now too:
select rating
Please do not post tabs as comments. Select "correction" instead!