Oops, an error
Loading. Please wait.

Brain Damage bass

99 views 1 this week
no commentswrite comment
1 2 3 4 5
3 more votes to show rating
add to favorites
×
Save as Personal and add changes to this tab that will be seen only by you. Learn more ›
×
You can save this tab as Personal to edit and correct it or add notes. All changes will be seen only by you. Learn more »
launch autoscroll
font size
0
reset
guitar tuner
edit
Autoscroll
slow
fast
+/-
esc
set tempo
stop
Bestial Soul - Brain Damage

Bass Tab wrote and recorded by Gwenaël Pigat
(played with fingers only)

Tuning : D-G-C-F



0:00

F|---------------------------------------------------------------|
C|---------------------------------------------------------------|
G|--------------------------------12-15-13-12\0------------------|
D|--0------------------------------------------------------------|


F|---------------------------------------------------------------|
C|---------------------------------------------------------------|
G|--------------------------------12-15-13-12--------------------|
D|--2/12-12-121212-0---------------------------------------------|


F|---------------------------------------------------------------|
C|---------------------------------------------------------------|
G|----12-----------5---7------12----------12-15-13-12------------|
D|-00----000000000---0-----00----0000000~------------------------|


F|---------------------------------------------------------------|
C|------------------------------------------------12h13h12h------|
G|----12-----------5---7------12---------12-15-13-----------13---|
D|-00----000000000---0-----00----00000000------------------------|


F|---------------------------------------------------------------|
C|---------------------------------------------------------------|
G|----12----7----8----5/7------12----7----8------12-15-13-12-----|
D|-00----00---00---00-------00----00---00---00-------------------| 


F|---------------------------------------------------------------|
C|--------------------77/9---------------------------------------|
G|----12----7----8----55/7------12----7----8------12-15-13-12----|
D|-00----00---00---00-------00----00---00---00-------------------| 


0:30

F|---------------------------------------------------------------|
C|---------------------------------------------------------------|
G|---------------------------------------------------------------|
D|-0-0-0-0-1-0-0-0-000-0-0-1---0-0-0-0-1-0-0-0-000-0-0-3---------|   

F|---------------------------------------------------------------|
C|---------------------------------------------------------------|
G|---------------------------------------------------------------|
D|-0-0-0-0-1-0-0-0-000-0-0-1---0-0-0-0-1-0-0-0-000-0-0-15b-15b---|

F|---------------------------------------------------------------|
C|---------------------------------------------------------------|
G|---------------------------------------------------------------|
D|-0-0-0-0-1-0-0-0-000-0-0-1---0-0-0-0-1-0-0-0-000-0-0-3---------|   

F|---------------------------------------------------------------|
C|---------------------------------------------------------------|
G|---------------------------------------------------------------|
D|-0-0-0-0-1-0-0-0-000-0-0-1---12-12-12-12-13-12-12-12-121212----|

F|---------------------------------------------------------------|
C|---------------------------------------------------------------|
G|---------------------------------------------------------------|
D|-121212-15b-15b------------------------------------------------|

F|---------------------------------------------------------------|
C|---------------------------------------------------------------|
G|------12-----------5---7------12----------12-15-13-12----------|
D|---00----000000000---0-----00----0000000~----------------------|


F|---------------------------------------------------------------|
C|------------------------------------------------12h13h12h------|
G|----12-----------5---7------12---------12-15-13-----------13---|
D|-00----000000000---0-----00----00000000------------------------|


1:00

F|---------------------------------------------------------------|
C|---------------------------------------------------------------|
G|---12----7----8----5/7----12----7----8----12151312h13h12h13----|
D|00----00---00---00-----00----00---00---00----------------------| 

F|---------------------------------------------------------------|
C|-------------------77/9----------------------------------------|
G|---12----7----8----55/7------12----7----8------12151312\0------|
D|00----00---00---00--------00----00---00---00-------------------| 

F|---------------------------------------------------------------|
C|------------------------------5-57-7-8887-7-7p5----------------|
G|-------------00-22-3-32-2-0h2-3-35-5-6665-5-5p3----------------|
D|---------------------------------------------------------------|


1:20

F|---------------------------------------------------------------|
C|---------------------------------------------------------------|
G|----0----2----3----2----0h2----3----5----6----5----3h5---------|
D|-00---00---00---00---00-----00---00---00---00---00-------------|
                                                                 
F|---------------------------------------------------------------|
C|---------------------------------------------------------------|
G|----0----2----3----2----0h2----15----17----18----17----17p15---|  
D|-00---00---00---00---00-----00----00----00----00----00---------|

F|---------------------------------------------------------------|
C|---------------------------------------------------------------|
G|----0----2----3----2----0h2----3----5----6----5----3h5---------|
D|-00---00---00---00---00-----00---00---00---00---00-------------|
                                                                 
F|---------------------------------------------------------------|
C|---------------------------------------------------------------|
G|----12----14----15----14----12h14----15---17---18---17----17p15|  
D|-00----00----00----00----00-------00---00---00---00---00-------|

F|---------------------------------------------------------------|
C|---------------------------------------------------------------|
G|-----12-----7-----8-----5/7b-----------------------------------|
D|-0-0----0-0---0-0---0-0----------------------------------------|

F|---------------------------------------------------------------|
C|---------------------------------------------------------------|
G|-----12-----7-----8------12-15-13-12h13h12h13------------------|
D|-0-0----0-0---0-0---0-0----------------------------------------|

F|---------------------------------------------------------------|
C|------------------------77/9-----------------------------------|
G|-----12-----7-----8-----55/7~----------------------------------|
D|-0-0----0-0---0-0---0-0----------------------------------------|

F|---------------------------------------------------------------|
C|---------------------------------------------------------------|
G|-----12-----7-----8----0---------------------------------------|
D|-0-0----0-0---0-0---0~-----------------------------------------|

1:51

F|---------------------------------------------------------------|
C|---------------------------------------------------------------|
G|-0---------------------0-0-0-0-0-0-0~-0-0-000-0-0-0-0~---------|
D|---------------------------------------------------------------|

F|---------------------------------------------------------------|
C|---------------------------------------------------------------|
G|-0-0-0-0-0-0-0-10-8-7-8-7h8h7h8h7h8h7~~------------------------|
D|---------------------------------------------------------------|

F|---------------------------------------------------------------|
C|---------------------------------------------------------------|
G|-0-0-0-0-0-0-0~~-0-0-000-0-7--000-0-0-0-0-0~~--000-0-0-0-5-----|
D|---------------------------------------------------------------|

F|---------------------------------------------------------------|
C|---------------------------------------------------------------|
G|-000-0-0-0-0-0~~-000-0-0-0-7--000-0-0-0-0-0-10-8-7-8-7\0-------|
D|---------------------------------------------------------------|



2:10

F|---------------------------------------------------------------|
C|------------------------2-----2------7----2-----2------7-------|
G|---------7---------5-----------------5-----------------5-------|
D|-0-0-0-0---0-0-0-0---00---0-0---00-0---00---0-0---00-0---------|

                       PP S P P S PP P   PP S P P S PP P


F|---------------------------------------------------------------|
C|---------------------9----------------------7------------------|
G|---------------------7----------------------5------------------|
D|-0-0-000-0000000000----0-0-000-00000000000---------------------|

F|---------------------------------------------------------------|
C|-----------------------------9---------------------------------|
G|-----------------------------7---------------------------------|
D|-0-0-000-0-0-000-0-0-000-0-0---0-0-000-0-0-000-0-0-000-0-0-1---|


2:31

F|---------------------------------------------------------------|
C|---------------------------------------------------------------|
G|-------------1-------------3----------------------1------------|
D|-00-00-00-00---00-00-00-00---0~-0~-0~-0~-0~-0~-0~--------------|

F|---------------12h14h12h14h12h14h12----------------------------|
C|----------12h14--------------------12-12h14h12h14h12h14h12-----|
G|-----12h14-------------------------------------------------14--|
D|12h14----------------------------------------------------------|

F|---------------------------------------------------------------|
C|---------------------------------------------------------------|
G|-------------------------1----------------------321------------|
D|-00-2h3-00-2h3-00-2h3-00---00-2~3-00-2h3-00-2h3----------------|



2:52

F|---------------------------------------------------------------|
C|----------------------9-----------------------7----------------|
G|----------------------7-----------------------5----------------|
D|-0-0-000-0000000000-----0-0-000-00000000000--------------------|
                                                                     X 2
F|---------------------------------------------------------------|
C|-----------------------------9----------------------------7----|
G|-----------------------------7----------------------------5----|
D|-0-0-000-000-000-000-000-000---00-000-000-000-000-000-000------|


F|---------------------------------------------------------------|
C|-------------------------------------9-------------------------|
G|-----7h8h7-----7h10h7-----7h8h7------7-------------------------|
D|-0-0-------0-0--------0-0-------00-----------------------------|

F|---------------------------------------------------------------|
C|---------------------------------------------------------------|
G|-----7h8h7-----7h10h7-----7h8h7--------------------------------|
D|-0-0-------0-0--------0-0-------00-2/6-------------------------|

F|---------------------------------------------------------------|
C|---------------------------------------------------------------|
G|-------------------------1-------------------------3-----------|
D|-00-2h3-00-2h3-00-2h3-00---00-2h3-00-2h3-00-2h3-00-------------|

F|---------------------------------------------------------------|
C|---------------------------------------------------------------|
G|-------------------------1----------------------321------------|
D|-00-2-3-00-2-3-00-2-3-00---00-2-3-00-2-3-00-2-3----------------|




3:24

F|---------------------------------------------------------------|
C|---------------------------------------------------------------|
G|---------------------------------------------------------------|
D|-0-0-0-0-1-0-0-0-000-0-0-1---0-0-0-0-1-0-0-0-000-0-0-3---------|   X 3


F|---------------------------------------------------------------|
C|---------------------------------------------------------------|
G|---------------------------------------------------------------|
D|-0-0-0-0-1-0-0-0-000-0-0-1---0-0-0-0-1-0-0-0-000-0-0-12b 12b---| 



3:45

F|---------------------------------------------------------------|
C|---------------------------------------------------------------|
G|-----12-----------------5---7----------------------------------|
D|-0-0----0-0-0-0-0-0-0-0---0------------------------------------|

F|---------------------------------------------------------------|
C|---------------------------------------------------------------|
G|-----12------------------12-15-13-12---------------------------|
D|-0-0----0-0-0-0-0-0-0~-----------------------------------------|

F|---------------------------------------------------------------|
C|---------------------------------------------------------------|
G|------------------------5/7------------------------------------|
D|-0-0-12-0-0-0-0-0-0-0-0----------------------------------------|

F|---------------------------------------------------------------|
C|------------------------------------------------12h13h12h------|
G|----12-----------5---7------12---------12-15-13-----------13---|
D|-00----000000000---0-----00----00000000------------------------|

F|---------------------------------------------------------------|
C|---------------------------------------------------------------|
G|-----12-----7-----8-----5-7b-----------------------------------|
D|-0-0----0-0---0-0---0-0----------------------------------------|

F|---------------------------------------------------------------|
C|---------------------------------------------------------------|
G|-----12-----7-----8------12-15-13-12~13~12~13------------------|
D|-0-0----0-0---0-0---0-0----------------------------------------|

F|---------------------------------------------------------------|
C|------------------------7/9------------------------------------|
G|-----12-----7-----8-----5/7------------------------------------|
D|-0-0----0-0---0-0---0-0----------------------------------------|

F|---------------------------------------------------------------|
C|---------------------------------------------------------------|
G|-----12-----7-----8------12-15-13-12\0-------------------------|
D|-0-0----0-0---0-0---0-0----------------------------------------|



4:11

F|---------------------------------------------------------------|
C|---------------------------------------------------------------|
G|----------------1515-1717-18-18181817-17-17p15-----------------|
D|---------------------------------------------------------------|

F|---------------------------------------------------------------|
C|---------------------------------------------------------------|
G|----0----2----3----2----0h2----3----5----6----5----3h5---------|
D|-00---00---00---00---00-----00---00---00---00---00-------------|
                                                                 
F|---------------------------------------------------------------|
C|---------------------------------------------------------------|
G|----0----2----3----2----0h2----15----17----18----17----17p15---|  
D|-00---00---00---00---00-----00----00----00----00----00---------|

F|---------------------------------------------------------------|
C|---------------------------------------------------------------|
G|----0----2----3----2----0h2----3----5----6----5----3h5---------|
D|-00---00---00---00---00-----00---00---00---00---00-------------|
                                                                 
F|---------------------------------------------------------------|
C|--------------------------------------------------------------7|
G|----12----14----15----14----12h14----15---17---18---1715-1514-0|  
D|-00----00----00----00----00-------00---00---00---00------------|


  b   : Bend
  h   : Hammer-on
  p   : pull-off
  ~   : Note maintenu
/ ou \: Slide


Hope you'll enjoy    ;)   !!

            
            
Suggest correction
Creating personal tab
Creating personal tab
You can edit any tab online and save it as your Personal.

You can edit, replace or remove any tab part or add personal notes – all changes will be seen only by you.

Personal tabs can be accessed anytime from any device, even offline.
Learn more »
Give kudos to tab author, rate the tab!
1 2 3 4 5
comments
print report bad tab
guest
You may want to rate the tab now too:
select rating
Wanna post a correction for this tab? Suggest correction