Oops, an error
Loading. Please wait.

Return To Darden Road Tab

82 views 3 this week
no commentswrite comment
1 2 3 4 5
3 more votes to show rating
add to favorites
launch autoscroll
font size
0
reset
how to read this tab
guitar tuner
Autoscroll
slow
fast
+/-
esc
set tempo
stop
Help us to improve Ultimate-Guitar.com Take our survey!
×
Author
Difficulty
Capo
novice
2nd fret
Capo 2nd fret

It´s the same throughout the whole song.



E|---------------------------------|--------------------------------|
B|-------0--------0-------0-------0|--------------------------------|
G|---3--------3-------3-------3----|-------4-------4-------4-------4|
D|-----4--------4-------4-------4--|---6-------6-------6-------6----|
A|---------------------------------|-----6-------6-------6-------6--|
D|-2-------2--------2-------2------|-4-------4-------4-------4------|

E|---------------------------------|--------------------------------|
B|---------------------------------|-------0-------0-------0-------0|
G|-------4--------4-------4-------4|---3-------3-------3-------3----|
D|---4--------4-------4-------4----|-----4-------4-------4-------4--|
A|-----6--------6-------6-------6--|--------------------------------|
D|-7-------7--------7-------7------|-2-------2-------2-------2------|
Suggest correction
Give kudos to tab author, rate the tab!
1 2 3 4 5
comments
print report bad tab
guest
You may want to rate the tab now too:
select rating
Wanna post a correction for this tab? Suggest correction