Oops, an error
Loading. Please wait.

Fire bass

103 views 15 this week
no commentswrite comment
1 2 3 4 5
3 more votes to show rating
add to favorites
×
Save as Personal and add changes to this tab that will be seen only by you. Learn more ›
×
You can save this tab as Personal to edit and correct it or add notes. All changes will be seen only by you. Learn more »
launch autoscroll
font size
0
reset
guitar tuner
edit
Autoscroll
slow
fast
+/-
esc
set tempo
stop
 [Intro Guitar]                                                                   
G|--------------------------------|--------------------------------|
D|--------------------------------|--------------------------------|
A|--------------------------------|--------------------------------|
E|--------------------------------|--------------------------------|
 
 [Verse 1]                                                                 
G|--------------------------------|--------------------------------|
D|----------------------------0---|----------------------------0---|
A|3-----3-------3---3-----1-------|3-----3-------3---3-----1-------|
E|--------------------3-----------|--------------------3-----------|
 
                                                                    
G|--------------------------------|--------------------------------|
D|----------------------------0---|----------------------------0---|
A|3-----3-------3---3-----1-------|3-----3-------3---3-----1-------|
E|--------------------3-----------|--------------------3-----------|
 
                                                                    
G|--------------------------------|--------------------------------|
D|----------------------------0---|----------------------------0---|
A|3-----3-------3---3-----1-------|3-----3-------3---3-----1-------|
E|--------------------3-----------|--------------------3-----------|
 
                                                                    
G|--------------------------------|--------------------------------|
D|----------------------------0---|----------------------------0---|
A|3-----3-------3---3-----1-------|3-----3-------3---3-----1-------|
E|--------------------3-----------|--------------------3-----------|
 
 [Pre-Chorus]                                                                   
G|--------------------------------|--------------------------------|
D|----------------------------0---|----------------------------0---|
A|3-----3-------3---3-----1-------|3-----3-------3---3-----1-------|
E|--------------------3-----------|--------------------3-----------|
 
                                                                    
G|--------------------------------|--------------------------------|
D|----------------------------0---|----------------------------0---|
A|3-----3-------3---3-----1-------|3-----3-------3---3-----1-------|
E|--------------------3-----------|--------------------3-----------|
 
 [Chorus]                                                                   
G|--------------------------------|--------------------------------|
D|----------------------------0---|----------------------------0---|
A|3-----3-------3---3-----1-------|3-----3-------3---3-----1-------|
E|--------------------3-----------|--------------------3-----------|
 
                                                                    
G|--------------------------------|--------------------------------|
D|----------------------------0---|----------------------------0---|
A|3-----3-------3---3-----1-------|3-----3-------3---3-----1-------|
E|--------------------3-----------|--------------------3-----------|
 
                                                                    
G|--------------------------------|--------------------------------|
D|----------------------------0---|----------------------------0---|
A|3-----3-------3---3-----1-------|3-----3-------3---3-----1-------|
E|--------------------3-----------|--------------------3-----------|
 
                                                                    
G|--------------------------------|--------------------------------|
D|--------------------------------|--------------------------------|
A|--------------------------------|--------------------------------|
E|--------------------------------|--------------------------------|
 
 [Interlude]                                                                   
G|--------------------------------|--------------------------------|
D|--------0-------------------0---|--------0-------------------0---|
A|3---------------3-------0-----0-|3---------------3-------0-----0-|
E|--------------------3-----3-----|--------------------3-----3-----|
 
                                                                    
G|--------------------------------|--------------------------------|
D|--------0-------------------0---|--------0-------------------0---|
A|3---------------3-------0-----0-|3---------------3-------0-----0-|
E|--------------------3-----3-----|--------------------3-----3-----|
 
[Verse 2]                                                                    
G|--------------------0-------5---|--------------------0-------5---|
D|--------------------------------|--------------------------------|
A|3-----------3-3---3-------------|3-----------3-3---3-------------|
E|--------------------------------|--------------------------------|
 
                                                                    
G|--------------------0-------5---|--------------------0-------5---|
D|--------------------------------|--------------------------------|
A|3-----------3-3---3-------------|3-----------3-3---3-------------|
E|--------------------------------|--------------------------------|
 
                                                                    
G|--------------------0-------5---|--------------------0-------5---|
D|--------------------------------|--------------------------------|
A|3-----------3-3---3-------------|3-----------3-3---3-------------|
E|--------------------------------|--------------------------------|
 
                                                                    
G|--------------------0-------5---|--------------------0-------5---|
D|--------------------------------|--------------------------------|
A|3-----------3-3---3-------------|3-----------3-3---3-------------|
E|--------------------------------|--------------------------------|
 
[Pre-Chorus]                                                                    
G|--------------------0-------5---|--------------------0-------5---|
D|--------------------------------|--------------------------------|
A|3-----------3-3---3-------------|3-----------3-3---3-------------|
E|--------------------------------|--------------------------------|
 
                                                                    
G|--------------------0-------5---|--------------------0-------5---|
D|--------------------------------|--------------------------------|
A|3-----------3-3---3-------------|3-----------3-3---3-------------|
E|--------------------------------|--------------------------------|
 
[Chorus]                                                                    
G|3-5---5---3-5-----5---3-5---3-5-|3-5---5---3-5-----5---3-5---3-5-|
D|--------------------------------|--------------------------------|
A|--------------------------------|--------------------------------|
E|--------------------------------|--------------------------------|
 
                                                                    
G|3-5---5---3-5-----5---3-5---3-5-|3-5---5---3-5-----5---3-5---3-5-|
D|--------------------------------|--------------------------------|
A|--------------------------------|--------------------------------|
E|--------------------------------|--------------------------------|
 
 [Verse 3]                                                                   
G|--------5-5-5-5-5-5-5-5-5-5-5-5-|------3-5---5-5-5---5-5-5-5-5---|
D|--------------------------------|--------------------------------|
A|3-----3-------------------------|3-3-3---------------------------|
E|--------------------------------|--------------------------------|
 
                                                                    
G|--------------------------------|----------------5---------------|
D|1---------0---------------------|--------------------------------|
A|----------------3---------------|--------------------------------|
E|--------------------------------|--------------------------------|
 
                                                                    
G|--------------------0-------5---|--------------------0-------5---|
D|--------------------------------|--------------------------------|
A|3-----------3-3---3-------------|3-----------3-3---3-------------|
E|--------------------------------|--------------------------------|
 
[Interlude]                                                                    
G|--------------------0-------5---|--------------------0-------5---|
D|--------------------------------|--------------------------------|
A|3-----------3-3---3-------------|3-----------3-3---3-------------|
E|--------------------------------|--------------------------------|
 
                                                                    
G|--------------------0-------5---|--------------------0-------5---|
D|--------------------------------|--------------------------------|
A|3-----------3-3---3-------------|3-----------3-3---3-------------|
E|--------------------------------|--------------------------------|
 
[Guitar solo]                                                                    
G|--------------------0-------5---|--------------------0-------5---|
D|--------------------------------|--------------------------------|
A|3-----------3-3---3-------------|3-----------3-3---3-------------|
E|--------------------------------|--------------------------------|
 
                                                                    
G|--------------------0-------5---|--------------------0-------5---|
D|--------------------------------|--------------------------------|
A|3-----------3-3---3-------------|3-----------3-3---3-------------|
E|--------------------------------|--------------------------------|
 
                                                                    
G|--------------------0-------5---|--------------------0-------5---|
D|--------------------------------|--------------------------------|
A|3-----------3-3---3-------------|3-----------3-3---3-------------|
E|--------------------------------|--------------------------------|
 
                                                                    
G|--------------------0-------5---|--------------------0-------5---|
D|--------------------------------|--------------------------------|
A|3-----------3-3---3-------------|3-----------3-3---3-------------|
E|--------------------------------|--------------------------------|
 
[Chorus]                                                                   
G|--------------------0-------5---|--------------------0-------5---|
D|--------------------------------|--------------------------------|
A|3-----------3-3---3-------------|3-----------3-3---3-------------|
E|--------------------------------|--------------------------------|
 
                                                                    
G|--------------------0-------5---|--------------------0-------5---|
D|--------------------------------|--------------------------------|
A|3-----------3-3---3-------------|3-----------3-3---3-------------|
E|--------------------------------|--------------------------------|
 
                                                                    
G|--------------------0-------5---|--------------------0-------5---|
D|--------------------------------|--------------------------------|
A|3-----------3-3---3-------------|3-----------3-3---3-------------|
E|--------------------------------|--------------------------------|
 
[Outro]                                                                    
G|--------------------------------|--------------------------------|
D|--------------------------------|--------------------------------|
A|--------------------------------|--------------------------------|
E|--------------------------------|--------------------------------|
 
                                                                    
G|--------------------------------|--------------------------------|
D|--------------------------------|--------------------------------|
A|--------------------------------|--------------------------------|
E|--------------------------------|--------------------------------|

            
            
Suggest correction
Creating personal tab
Creating personal tab
You can edit any tab online and save it as your Personal.

You can edit, replace or remove any tab part or add personal notes – all changes will be seen only by you.

Personal tabs can be accessed anytime from any device, even offline.
Learn more »
Give kudos to tab author, rate the tab!
1 2 3 4 5
comments
print report bad tab
guest
You may want to rate the tab now too:
select rating
Wanna post a correction for this tab? Suggest correction