Oops, an error
Loading. Please wait.

In And Out bass

31 views 3 this week
no commentswrite comment
1 2 3 4 5
3 more votes to show rating
add to favorites
×
Save as Personal and add changes to this tab that will be seen only by you. Learn more ›
×
You can save this tab as Personal to edit and correct it or add notes. All changes will be seen only by you. Learn more »
launch autoscroll
font size
0
reset
guitar tuner
edit
Autoscroll
slow
fast
+/-
esc
set tempo
stop
4/4
128 BPM

[Intro]                                                                   
G|--------------------------------|
D|--------------------------------|
A|--------------------------------| (x24)
E|--------------------------------|
 
[Chorus]                                                                  
G|--------------------------------|--------------------------------|
D|--------------------------------|--------------------------------|
A|0-------------------------------|0-----------0---0---------------|
E|--------------------0---3-------|--------------------0---3-------|
                                                                    
G|--------------------------------|--------------------------------|
D|--------------------------------|------------------------2---3---|
A|--------------------------------|3-----------3---3---3-----------|
E|1-----------1---1-------3-------|--------------------------------|
                                                                    
G|--------------------------------|--------------------------------|
D|--------------------------------|--------------------------------|
A|0-------------------------------|0-----------0---0---------------|
E|--------------------0---3-------|--------------------0---3-------|
                                                                     
G|--------------------------------|--------------------------------|
D|--------------------------------|------------------------2---3---|
A|--------------------------------|3-----------3---3---------------|
E|1-----------1---1-------3-------|--------------------------------| 
                                                                    
G|--------------------------------|--------------------------------|
D|--------------------------------|--------------------------------|
A|0-------------------------------|0-----------0---0---------------|
E|--------------------0---3-------|--------------------0---3-------| 
                                                                    
G|--------------------------------|--------------------------------|
D|--------------------------------|------------------------2---3---|
A|--------------------------------|3-----------3---3---------------|
E|1-----------1---1-------3-------|--------------------------------| 
                                                                    
G|--------------------------------|--------------------------------|
D|--------------------------------|--------------------------------|
A|0-------------------------------|0-----------0---0---------------|
E|--------------------0---3-------|--------------------0---3-------|
                                                                     
G|--------------------------------|--------------------------------|
D|--------------------------------|------------------------2---3---|
A|--------------------------------|3-----------3---3---------------|
E|1-----------1---1-------3-------|--------------------------------|
 
[Verse 1]                                                                   
G|--------------------------------|--------------------------------|
D|--------------------------------|--------------------------------|
A|0-------------------------------|0-----------0---0---------------|
E|--------------------0---3-------|--------------------0---3-------| 
                                                                    
G|--------------------------------|--------------------------------|
D|--------------------------------|--------------------------------|
A|--------------------------------|3-----------3---3---3-----------|
E|1-----------1---1-------3-------|------------------------0-------|
                                                                    
G|--------------------------------|--------------------------------|
D|--------------------------------|--------------------------------|
A|0-------------------------------|0-----------0---0---------------|
E|--------------------0---3-------|--------------------0---3-------|
                                                                     
G|--------------------------------|--------------------------------|
D|--------------------------------|--------------------------------|
A|--------------------------------|3-----------3---3-------2-------|
E|1-----------1---1-------3-------|--------------------------------|
                                                                     
G|--------------------------------|--------------------------------|
D|--------------------------------|--------------------------------|
A|0-------------------------------|0-----------0---0---------------|
E|--------------------0---3---3---|--------------------0---3-------|
                                                                     
G|--------------------------------|--------------------------------|
D|--------------------------------|------------------------2-------|
A|--------------------------------|3-----------3---3---------------|
E|1-----------1---1-------3-------|--------------------------------|
                                                                    
G|--------------------------------|--------------------------------|
D|--------------------------------|--------------------------------|
A|0-------------------------------|0-----------0---0---------------|
E|--------------------0---3-------|--------------------0---3-------|
                                                                     
G|--------------------------------|--------------------------------|
D|--------------------------------|--------------------------------|
A|--------------------------------|3-----------3---3-------2-------|
E|1-----------1---1-------3-------|--------------------------------|
 
[Pre-Chorus]                                                                    
G|--------------------------------|--------------------------------|
D|--------------------------------|--------------------------------|
A|--------------------------------|--------------------------------|
E|--------------------------------|--------------------------------|
                                                                    
G|--------------------------------|--------------------------------|
D|--------------------------------|--------------------------------|
A|--------------------------------|--------------------------------|
E|--------------------------------|--------------------------------|
 
[Chorus]                                                                    
G|--------------------------------|--------------------------------|
D|--------------------------------|--------------------------------|
A|0-------------------------------|0-----------0---0---------------|
E|--------------------0---3-------|--------------------0---3-------|
                                                                     
G|--------------------------------|--------------------------------|
D|--------------------------------|--------------------------------|
A|--------------------------------|3-----------3---3---3---2---1---|
E|1---------------1-------3-------|--------------------------------|
                                                                    
G|--------------------------------|--------------------------------|
D|--------------------------------|--------------------------------|
A|0-------------------------------|0-----------0---0---------------|
E|--------------------0---3-------|--------------------0---3-------|
                                                                    
G|--------------------------------|--------------------------------|
D|--------------------------------|--------------------------------|
A|--------------------------------|3-----------3---3---3---2---1---|
E|1-------------------------------|--------------------------------|
                                                                     
G|--------------------------------|--------------------------------|
D|--------------------------------|--------------------------------|
A|0-------------------------------|0-----------0---0---------------|
E|--------------------0---3-------|--------------------0---3-------|
                                                                     
G|--------------------------------|--------------------------------|
D|--------------------------------|--------------------------------|
A|--------------------------------|3-----------3---3---3---2---1---|
E|1-------------------------------|--------------------------------|
                                                                     
G|--------------------------------|--------------------------------|
D|--------------------------------|--------------------------------|
A|0-------------------------------|0-----------0---0---------------|
E|--------------------0---3-------|--------------------0---3-------|
 
[Interlude 2]                                                                   
G|--------------------------------|--------------------------------|
D|--------------------------------|--------------------------------|
A|--------------------------------|3-----------3---3---3---2---1---|
E|1-------------------------------|--------------------------------| 
                                                                    
G|--------------------------------|--------------------------------|
D|--------------------------------|--------------------------------|
A|0-------------------------------|0-----------0---0---------------|
E|--------------------0---3-------|--------------------0---3-------| 
                                                                    
G|--------------------------------|--------------------------------|
D|--------------------------------|--------------------------------|
A|--------------------------------|3-----------3---3---3---2-------|
E|1-----------1---1-------3-------|--------------------------------| 
                                                                    
G|--------------------------------|--------------------------------|
D|--------------------------------|--------------------------------|
A|0-------------------------------|0-----------0---0---------------|
E|--------------------0---3-------|--------------------0---3-------|
                                                                     
G|--------------------------------|--------------------------------|
D|--------------------------------|--------------------------------|
A|--------------------------------|3-----------3---3---3---2-------|
E|1-----------1---1-------3-------|--------------------------------|
                                                                     
G|--------------------------------|--------------------------------|
D|--------------------------------|--------------------------------|
A|0-------------------------------|0-----------0---0---------------|
E|--------------------0---3-------|--------------------0---3-------|
                                                                    
G|--------------------------------|--------------------------------|
D|--------------------------------|--------------------------------|
A|--------------------------------|3-----------3---3---3---2---1---|
E|1---------------1-------3-------|--------------------------------|
                                                                     
G|--------------------------------|--------------------------------|
D|--------------------------------|--------------------------------|
A|0-------------------------------|0-----------0---0---------------|
E|--------------------0---3-------|--------------------0---3-------|
                                                                     
G|--------------------------------|--------------------------------|
D|--------------------------------|--------------------------------|
A|--------------------------------|3-----------3---3---3---2-------|
E|1-----------1---1-------3-------|--------------------------------|
 
[Pre-Chorus]                                                                   
G|--------------------------------|--------------------------------|
D|--------------------------------|--------------------------------|
A|--------------------------------|--------------------------------|
E|--------------------------------|--------------------------------| 
                                                                    
G|--------------------------------|--------------------------------|
D|--------------------------------|--------------------------------|
A|--------------------------------|--------------------------------|
E|--------------------------------|--------------------------------|
 
[Chorus]                                                                   
G|--------------------------------|--------------------------------|
D|--------------------------------|--------------------------------|
A|0-------------------------------|0-----------0---0---------------|
E|--------------------0---3-------|--------------------0---3-------|
                                                                    
G|--------------------------------|--------------------------------|
D|--------------------------------|--------------------------------|
A|--------------------------------|3-----------3---3---3---2-------|
E|1-----------1---1-------3-------|--------------------------------|
                                                                    
G|--------------------------------|--------------------------------|
D|--------------------------------|--------------------------------|
A|0-------------------------------|0-----------0---0---------------|
E|--------------------0---3-------|--------------------0---3-------|
                                                                     
G|--------------------------------|--------------------------------|
D|--------------------------------|--------------------------------|
A|--------------------------------|3-----------3---3---3---2-------|
E|1-----------1---1-------3-------|--------------------------------|
                                                                    
G|--------------------------------|--------------------------------|
D|--------------------------------|--------------------------------|
A|0-------------------------------|0-----------0---0---------------|
E|--------------------0---3-------|--------------------0---3-------|
                                                                    
G|--------------------------------|--------------------------------|
D|--------------------------------|--------------------------------|
A|--------------------------------|3-----------3---3---3---2-------|
E|1-----------1---1-------3-------|--------------------------------|
 
[Outro]                                                                   
G|--------------------------------|--------------------------------|
D|--------------------------------|--------------------------------|
A|0-------------------------------|0-----------0---0---------------|
E|--------------------0---3-------|--------------------0---3-------| 
                                                                    
G|--------------------------------|--------------------------------|
D|--------------------------------|--------------------------------|
A|--------------------------------|3-----------3---3---3---2-------|
E|1-----------1---1-------3-------|--------------------------------|
                                                                    
G|--------------------------------|--------------------------------|
D|--------------------------------|--------------------------------|
A|0-------------------------------|0-----------0---0---------------|
E|--------------------0---3-------|--------------------0---3-------|
                                                                    
G|--------------------------------|--------------------------------|
D|--------------------------------|--------------------------------|
A|--------------------------------|3-------------------------------|
E|1-----------1---1-------3-------|--------------------------------|
Suggest correction
Creating personal tab
Creating personal tab
You can edit any tab online and save it as your Personal.

You can edit, replace or remove any tab part or add personal notes – all changes will be seen only by you.

Personal tabs can be accessed anytime from any device, even offline.
Learn more »
Give kudos to tab author, rate the tab!
1 2 3 4 5
comments
print report bad tab
guest
You may want to rate the tab now too:
select rating
Wanna post a correction for this tab? Suggest correction