Oops, an error
Loading. Please wait.

In And Out tab

148 views 36 this week
no commentswrite comment
1 2 3 4 5
3 more votes to show rating
add to favorites
×
Save as Personal and add changes to this tab that will be seen only by you. Learn more ›
×
You can save this tab as Personal to edit and correct it or add notes. All changes will be seen only by you. Learn more »
launch autoscroll
font size
0
reset
how to read this tab
guitar tuner
edit
Autoscroll
slow
fast
+/-
esc
set tempo
stop
[Intro]                                                                    
E|--------------------------------|--------------------------------|
B|--------------------------------|--------------------------------|
G|--------------------------------|--------------------------------|
D|--------------------------------|--------------------------------|
A|0-------x---0---0---------------|0-------x---0---0---------------|
E|--------------------0---3-------|--------------------0---3-------|
                                                                    
E|--------------------------------|--------------------------------|
B|--------------------------------|--------------------------------|
G|--------------------------------|--------------------------------|
D|--------------------------------|--------------------------------|
A|--------------------------------|3-----------3---3---3-----------|
E|1-----------1---1---1---1-------|------------------------0---1---|
                                                                   
E|--------------------------------|--------------------------------|
B|--------------------------------|--------------------------------|
G|--------------------------------|--------------------------------|
D|--------------------------------|--------------------------------|
A|0-------x---0---0---------------|0-------x---0---0---------------|
E|--------------------0---3-------|--------------------0---3-------|
                                                                    
E|--------------------------------|--------------------------------|
B|--------------------------------|--------------------------------|
G|--------------------------------|--------------------------------|
D|--------------------------------|--------------------------------|
A|--------------------------------|3-----------3---3---3---2-------|
E|1-----------1---1---1---3-------|--------------------------------|
 
[Verse 1]                                                                    
E|--------------------------------|--------------------------------|
B|--------------------------------|--------------------------------|
G|--------------------------------|--------------------------------|
D|--------------------------------|--------------------------------|
A|0-------x---0---0---------------|0-------x---0---0---------------|
E|--------------------0---3-------|--------------------0---3-------|
                                                                    
E|--------------------------------|--------------------------------|
B|--------------------------------|--------------------------------|
G|--------------------------------|--------------------------------|
D|--------------------------------|--------------------------------|
A|--------------------------------|3-----------3---3---3---2-------|
E|1-----------1---1---1---3-------|--------------------------------| 
                                                                    
E|--------------------------------|--------------------------------|
B|--------------------------------|--------------------------------|
G|--------------------------------|--------------------------------|
D|--------------------------------|--------------------------------|
A|0-------x---0---0---------------|0-------x---0---0---------------|
E|--------------------0---3-------|--------------------0---3-------|
                                                                   
E|--------------------------------|--------------------------------|
B|--------------------------------|--------------------------------|
G|--------------------------------|--------------------------------|
D|--------------------------------|--------------------------------|
A|--------------------------------|3-----------3---3---3---2-------|
E|1-----------1---1---1---3-------|--------------------------------| 
                                                                    
E|--------------------------------|--------------------------------|
B|--------------------------------|--------------------------------|
G|--------------------------------|--------------------------------|
D|--------------------------------|--------------------------------|
A|0-------x---0---0---------------|0-------x---0---0---------------|
E|--------------------0---3-------|--------------------0---3-------|
                                                                    
E|--------------------------------|--------------------------------|
B|--------------------------------|--------------------------------|
G|--------------------------------|--------------------------------|
D|--------------------------------|--------------------------------|
A|--------------------------------|3-----------3---3---3---2-------|
E|1-----------1---1---1---3-------|--------------------------------| 
                                                                    
E|--------------------------------|--------------------------------|
B|--------------------------------|--------------------------------|
G|--------------------------------|--------------------------------|
D|--------------------------------|--------------------------------|
A|0-------x---0---0---------------|0-------x---0---0---------------|
E|--------------------0---3-------|--------------------0---3-------|
                                                                    
E|--------------------------------|--------------------------------|
B|--------------------------------|--------------------------------|
G|--------------------------------|--------------------------------|
D|--------------------------------|--------------------------------|
A|--------------------------------|3-----------3---3---3---2-------|
E|1-----------1---1---1---3-------|--------------------------------|
 
[Chorus]                                                                    
E|--------5-----------5-----------|--------5-----------5-----------|
B|--------5-----------5-----------|--------5-----------5-----------|
G|--------5-----------5-----------|--------5-----------5-----------|
D|--------7-----------7-----------|--------7-----------7-----------|
A|--------------------------------|--------------------------------|
E|--------------------------------|--------------------------------|
                                                                     
E|--------5-----------5-----------|--------8-----------8-----------|
B|--------5-----------5-----------|--------5-----------5-----------|
G|--------5-----------5-----------|--------5-----------5-----------|
D|--------7-----------7-----------|--------5-----------5-----------|
A|--------------------------------|--------------------------------|
E|--------------------------------|--------------------------------| 
                                                                    
E|--------5-----------5-----------|--------5-----------5-----------|
B|--------5-----------5-----------|--------5-----------5-----------|
G|--------5-----------5-----------|--------5-----------5-----------|
D|--------7-----------7-----------|--------7-----------7-----------|
A|--------------------------------|--------------------------------|
E|--------------------------------|--------------------------------| 
                                                                    
E|--------5-----------5-----------|--------8-----------8-----------|
B|--------5-----------5-----------|--------5-----------5-----------|
G|--------5-----------5-----------|--------5-----------5-----------|
D|--------7-----------7-----------|--------5-----------5-----------|
A|--------------------------------|--------------------------------|
E|--------------------------------|--------------------------------|
                                                                     
E|--------5-----------5-----------|--------5-----------5-----------|
B|--------5-----------5-----------|--------5-----------5-----------|
G|--------5-----------5-----------|--------5-----------5-----------|
D|--------7-----------7-----------|--------7-----------7-----------|
A|--------------------------------|--------------------------------|
E|--------------------------------|--------------------------------|
                                                                     
E|--------5-----------5-----------|--------8-----------8-----------|
B|--------5-----------5-----------|--------5-----------5-----------|
G|--------5-----------5-----------|--------5-----------5-----------|
D|--------7-----------7-----------|--------5-----------5-----------|
A|--------------------------------|--------------------------------|
E|--------------------------------|--------------------------------|
                                                                    
E|--------5-----------5-----------|--------5-----------5-----------|
B|--------5-----------5-----------|--------5-----------5-----------|
G|--------5-----------5-----------|--------5-----------5-----------|
D|--------7-----------7-----------|--------7-----------7-----------|
A|--------------------------------|--------------------------------|
E|--------------------------------|--------------------------------|
                                                                    
E|--------5-----------5-----------|--------8-----------8-----------|
B|--------5-----------5-----------|--------5-----------5-----------|
G|--------5-----------5-----------|--------5-----------5-----------|
D|--------7-----------7-----------|--------5-----------5-----------|
A|--------------------------------|--------------------------------|
E|--------------------------------|--------------------------------|
 
[Verse 2]                                                                    
E|--------------------------------|--------------------------------|
B|--------------------------------|--------------------------------|
G|--------2---0---2---------------|--------2---0---2---------------|
D|--------------------------------|--------------------------------|
A|0-------------------------------|0-------------------------------|
E|--------------------0-----------|--------------------0---0---1---|
                                                                    
E|--------------------------------|--------------------------------|
B|--------------------------------|--------------------------------|
G|------------------------0-------|--------------------------------|
D|--------------------------------|--------------------------------|
A|--------------------------------|------------------------3-------|
E|1-------1---0---1---0-----------|--------0---0---0---0-----------| 
                                                                    
E|--------------------------------|--------------------------------|
B|--------------------------------|--------------------------------|
G|--------2---0---2---------------|--------2---0---2---------------|
D|--------------------------------|--------------------------------|
A|0-------------------------------|0-------------------------------|
E|--------------------0---0---0---|--------------------0---0---1---|
                                                                     
E|--------------------------------|--------------------------------|
B|--------------------------------|--------------------------------|
G|--------------------------------|--------------------------------|
D|--------------------------------|--------------------------------|
A|------------------------3-------|3-----------3---3-------2-------|
E|1-------1---0---1---0-----------|--------------------------------|
                                                                     
E|--------------------------------|--------------------------------|
B|--------------------------------|--------------------------------|
G|--------2---0---2---------------|--------2---0---2---------------|
D|--------------------------------|--------------------------------|
A|0-------------------------------|0-------------------------------|
E|--------------------0---0---0---|--------------------0---0---1---|
                                                                     
E|--------------------------------|--------------------------------|
B|--------------------------------|--------------------------------|
G|--------------------------------|--------------------------------|
D|--------------------------------|--------------------------------|
A|------------------------3-------|3-------3---3-------3---2-------|
E|1-------1---0---1---0-----------|--------------------------------|
                                                                    
E|--------------------------------|--------------------------------|
B|--------------------------------|--------------------------------|
G|--------2---0---2---------------|--------2---0---2---------------|
D|--------------------------------|--------------------------------|
A|0-------------------------------|0-------------------------------|
E|--------------------0---0---0---|--------------------0---0---1---|
                                                                     
E|--------------------------------|--------------------------------|
B|--------------------------------|--------------------------------|
G|--------------------------------|--------------------------------|
D|--------------------------------|--------------------------------|
A|------------------------3-------|3-------3---3---3---3---2-------|
E|1-------1---0---1---0-----------|--------------------------------|
                                                                     
E|--------------------------------|--------------------------------|
B|--------------------------------|--------------------------------|
G|--------------------------------|--------------------------------|
D|--------------------------------|--------------------------------|
A|0-------0---0---0---------------|0-------0---0---0---------------|
E|--------------------0---3-------|--------------------0---3-------|
 
                                  [Chorus]                                  
E|--------------------------------|--------5-----------5-----------|
B|--------------------------------|--------5-----------5-----------|
G|--------------------------------|--------5-----------5-----------|
D|--------------------------------|--------7-----------7-----------|
A|--------------------------------|--------------------------------|
E|1-----------1---1---1---3-------|--------------------------------|
                                                                     
E|--------5-----------5-----------|--------5-----------5-----------|
B|--------5-----------5-----------|--------5-----------5-----------|
G|--------5-----------5-----------|--------5-----------5-----------|
D|--------7-----------7-----------|--------7-----------7-----------|
A|--------------------------------|--------------------------------|
E|--------------------------------|--------------------------------| 
                                                                    
E|--------8-----------8-----------|--------5-----------5-----------|
B|--------5-----------5-----------|--------5-----------5-----------|
G|--------5-----------5-----------|--------5-----------5-----------|
D|--------5-----------5-----------|--------7-----------7-----------|
A|--------------------------------|--------------------------------|
E|--------------------------------|--------------------------------|
                                                                    
E|--------5-----------5-----------|--------5-----------5-----------|
B|--------5-----------5-----------|--------5-----------5-----------|
G|--------5-----------5-----------|--------5-----------5-----------|
D|--------7-----------7-----------|--------7-----------7-----------|
A|--------------------------------|--------------------------------|
E|--------------------------------|--------------------------------|
                                                                    
E|--------8-----------8-----------|--------5-----------5-----------|
B|--------5-----------5-----------|--------5-----------5-----------|
G|--------5-----------5-----------|--------5-----------5-----------|
D|--------5-----------5-----------|--------7-----------7-----------|
A|--------------------------------|--------------------------------|
E|--------------------------------|--------------------------------|
 
[Middle 8]
E|--------------------------------|--------------------------------|
B|--------------------------------|--------------------------------|
G|--------2---0---2---0-----------|--------2---0---2---0-----------|
D|------------------------2-------|------------------------2-------|
A|--------------------------------|--------------------------------|
E|--------------------------------|--------------------------------|
                                                                    
E|--------------------------------|--------------------------------|
B|--------------------------------|--------------------------------|
G|--------------------------------|--------------------------------|
D|--------3---1---3---1-----------|--------------------------------|
A|------------------------3-------|--------------------------------|
E|--------------------------------|--------------------------------|
                                                                    
E|--------------------------------|--------------------------------|
B|--------------------------------|--------------------------------|
G|----2---0---2---0---------------|----2---0---2---0---------------|
D|--------------------2-----------|--------------------2-----------|
A|--------------------------------|--------------------------------|
E|--------------------------------|--------------------------------|
                                                                     
E|--------------------------------|--------------------------------|
B|--------------------------------|--------------------------------|
G|--------------------------------|--------------------------------|
D|----3---1---3---1---------------|--------------------------------|
A|--------------------3-----------|--------------------------------|
E|--------------------------------|--------------------------------|
 
[Solo]                                                                    
E|--------12--12--12--------------|10------------------------------|
B|--------------------13----------|------------10--10--10--10------|
G|--------------------------------|--------------------------------|
D|--------------------------------|--------------------------------|
A|--------------------------------|--------------------------------|
E|--------------------------------|--------------------------------|
                                                                     
E|------------------------15------|13------------------------------|
B|10------------------------------|--------------------------------|
G|--------------------------------|--------------------------------|
D|--------------------------------|--------------------------------|
A|--------------------------------|--------------------------------|
E|--------------------------------|--------------------------------|
                                                                    
E|--------12----------------------|10------------------------------|
B|--------------------13----------|--------------------------------|
G|--------------------------------|--------------------------------|
D|--------------------------------|--------------------------------|
A|--------------------------------|--------------------------------|
E|--------------------------------|--------------------------------| 
                                                                    
E|------------------------15------|13------12------10--------------|
B|--------------------------------|------------------------13------|
G|--------------------------------|--------------------------------|
D|--------------------------------|--------------------------------|
A|--------------------------------|--------------------------------|
E|--------------------------------|--------------------------------|
                                                                    
E|--------12----------------------|10------------------------------|
B|--------------------13----------|------------10--10--10--10--10--|
G|--------------------------------|--------------------------------|
D|--------------------------------|--------------------------------|
A|--------------------------------|--------------------------------|
E|--------------------------------|--------------------------------| 
                                                                    
E|------------------------15------|13------12------10--------------|
B|--------------------------------|------------------------13------|
G|14------------------------------|--------------------------------|
D|--------------------------------|--------------------------------|
A|--------------------------------|--------------------------------|
E|--------------------------------|--------------------------------|
                                                                     
E|--------12----------------------|10------------------------------|
B|--------------------13----------|------------10------------------|
G|--------------------------------|--------------------------------|
D|--------------------------------|--------------------------------|
A|--------------------------------|--------------------------------|
E|--------------------------------|--------------------------------| 
                                                                    
E|------------------------15------|13----------12--10--------------|
B|--------------------------------|------------------------13------|
G|--------------------------------|--------------------------------|
D|--------------------------------|--------------------------------|
A|--------------------------------|--------------------------------|
E|--------------------------------|--------------------------------|                                  

[Interlude]                                                                   
E|--------------------------------|--------------------------------|
B|--------------------------------|--------------------------------|
G|--------------------------------|--------------------------------|
D|--------------------------------|--------------------------------|
A|0-------x---0---0---------------|0-------x---0---0---------------|
E|--------------------0---3-------|--------------------0---3-------|
                                                                     
E|--------------------------------|--------------------------------|
B|--------------------------------|--------------------------------|
G|--------------------------------|--------------------------------|
D|--------------------------------|--------------------------------|
A|--------------------------------|--------------------------------|
E|1-----------1---1---1---3-------|--------------------------------|
 
[Outro]                                                                    
E|------------5-----------5-------|------------5-----------5-------|
B|------------5-----------5-------|------------5-----------5-------|
G|------------5-----------5-------|------------5-----------5-------|
D|------------7-----------7-------|------------7-----------7-------|
A|--------------------------------|--------------------------------|
E|--------------------------------|--------------------------------|
                                                                     
E|------------5-----------5-------|--------8-----------8-----------|
B|------------5-----------5-------|--------5-----------5-----------|
G|------------5-----------5-------|--------5-----------5-----------|
D|------------7-----------7-------|--------5-----------5-----------|
A|--------------------------------|--------------------------------|
E|--------------------------------|--------------------------------| 
                                                                    
E|----------5-----------5---------|----------5-----------5---------|
B|----------5-----------5---------|----------5-----------5---------|
G|----------5-----------5---------|----------5-----------5---------|
D|----------7-----------7---------|----------7-----------7---------|
A|--------------------------------|--------------------------------|
E|--------------------------------|--------------------------------| 
                                                                    
E|----------5-----------5---------|--------8-----------8-----------|
B|----------5-----------5---------|--------5-----------5-----------|
G|----------5-----------5---------|--------5-----------5-----------|
D|----------7-----------7---------|--------5-----------5-----------|
A|--------------------------------|--------------------------------|
E|--------------------------------|--------------------------------| 
                                                                    
E|--------5-----------5-----------|--------5-----------5-----------|
B|--------5-----------5-----------|--------5-----------5-----------|
G|--------5-----------5-----------|--------5-----------5-----------|
D|--------7-----------7-----------|--------7-----------7-----------|
A|--------------------------------|--------------------------------|
E|--------------------------------|--------------------------------|
                                                                    
E|--------5-----------5-----------|--------8-----------8-----------|
B|--------5-----------5-----------|--------5-----------5-----------|
G|--------5-----------5-----------|--------5-----------5-----------|
D|--------7-----------7-----------|--------5-----------5-----------|
A|--------------------------------|--------------------------------|
E|--------------------------------|--------------------------------|
                                                                    
E|--------------------------------|--------------------------------|
B|--------------------------------|--------------------------------|
G|--------------------------------|--------------------------------|
D|--------------------------------|--------------------------------|
A|0-------x---0---0---------------|0-------x---0---0---------------|
E|--------------------0---3-------|--------------------0---3-------|
                                                                   
E|--------------------------------|--------------------------------|
B|--------------------------------|--------------------------------|
G|--------------------------------|--------------------------------|
D|--------------------------------|--------------------------------|
A|--------------------------------|3-----------3---3---3---2-------|
E|1-----------1---1---1---3-------|--------------------------------|
                                                                    
E|--------------------------------|--------------------------------|
B|--------------------------------|--------------------------------|
G|--------------------------------|--------------------------------|
D|--------------------------------|--------------------------------|
A|0-------x---0---0---------------|0-------x---0---0---------------|
E|--------------------0---3-------|--------------------0---3-------|
                                                                    
E|--------------------------------|--------------------------------|
B|--------------------------------|--------------------------------|
G|--------------------------------|--------------------------------|
D|--------------------------------|--------------------------------|
A|--------------------------------|3-------------------------------|
E|1-----------1---1---1---3-------|--------------------------------|



************************************

| x  Dead note

************************************

            
            
Suggest correction
Creating personal tab
Creating personal tab
You can edit any tab online and save it as your Personal.

You can edit, replace or remove any tab part or add personal notes – all changes will be seen only by you.

Personal tabs can be accessed anytime from any device, even offline.
Learn more »
Give kudos to tab author, rate the tab!
1 2 3 4 5
comments
print report bad tab
guest
You may want to rate the tab now too:
select rating
Wanna post a correction for this tab? Suggest correction