Oops, an error
Loading. Please wait.

Caught Out In The Rain chords

6,544 views 117 this week
4 commentsread comments
1 2 3 4 5
x 11
add to favorites
×
Save as Personal and add changes to this tab that will be seen only by you. Learn more ›
×
You can save this tab as Personal to edit and correct it or add notes. All changes will be seen only by you. Learn more »
launch autoscroll
font size
0
reset
transpose
0
reset
simplify chords
display chords
guitar tuner
edit
Autoscroll
slow
fast
+/-
esc
set tempo
stop
Author
Difficulty
intermediate
Strumming
There is no strumming pattern for this song yet. and get +5 IQ
No Capo

Dm     xx0231
Dsus4  xx0233
D5     xx0235 
Am7    x02230
Asus4  577755  
Bb     113331
C      335553
Gm/D   x55333
Am/E   x77555

[Intro]   
   Dm          Am           Dm        Am
e|------1-----------0-----------1---------0-----|
B|----3---3-------1-----1-----3---3---------1---|
G|----------2---------2-----------------2-------|
D|-0------------------------0-------------------|
A|-------------0----------------------0---------|
E|----------------------------------------------| 

   Dm          Am           Dm        Am
e|-----1-----------0------------1---------------|
B|-------3-------1-----1----------3---------1---|
G|---2-----2------------------2-----2-----2-----|
D|-0------------------------0-------------------|
A|-------------0----------------------0---------|
E|----------------------------------------------|

   Dm          Am           Dm        Am
e|-----1-----------0------------1-----------5---|
B|-------3-------1----------------3-------5-----|
G|---2-----2------------------2-----2-----------|
D|-0------------------------0-------------------|
A|-------------0----------------------0---------|
E|----------------------------------------------|

   Dm      Dsus4 Am    Asus4 Dm         Am7       Dm
e|------1/5-3-1-----0---------3/5-10\5---0-3-0-1---|
B|----3--------------1-3----3--------------------3-|
G|----------------2--------------------------------|
D|-0---------------------0-------------------------|
A|--------------0----------------------0-----------|
E|-------------------------------------------------|
                   Dm      Am    
  I'm under your spell
Dm                Am   
  Ain't nobody's business
Dm              Am    
  I'm already there
D5 Dsus4 Dm                Am   
          And it ain't nobody's business
Dm    Am    Dm    Am 

Dm    Am    Dm    Am Am7

[Verse]
Dm               Am
  Every time he walks out the door
Dm                  Am            Am7
  I wonder if he's ever coming back
Dm                      Am
  But I can't help but love the taste of danger baby
Dm                      Am            Am7  
  And the howl and the wind and the rough of his hands

[Chorus]
Gm/D              Am/E                 
  I got caught out in the rain
Gm/D               
  If I die I don't care I'm in love
Am/E                                  
  I'm in love, I'm in love with this man
Gm/D               Bb            C 
  I got caught out, caught out, caught out
        Dm    Am    Dm    Am Am7
  In the rain
  

[Verse]
Dm                            Am             Am7
  I heard him crying in his sleep last night
Dm                    Am
  No man wants to be told that he's been crying
Dm                         Am                     Am7
  When he wakes up I tell him it's gonna be alright
Dm                     Am                     Am7
  But I know that he knows that I'm just lying

[Verse]
Dm                Am                
  I heard he shot a man down in the street
Dm                       Am  Am7
  And it tore his soul apart
Dm                        Am             Am7
  Last night when he was making love to me
Dm                      Am 
  There was a, another woman in his heart 

[Chorus]
Gm/D              Am/E                 
  I got caught out in the rain
Gm/D               
  If I die I don't care I'm in love
Am/E                                  
  I'm in love, I'm in love with this man
Gm/D               Bb            C 
  I got caught out, caught out, caught out
          Dm   Am
  In the rain
          Dm   Am
  In the rain

[Solo]
Dm    Am    Dm    Am 
Dm    Am    Dm    Am 
F     F     Bb    Gm

Bb        Dm           Bb         Am      
Ooooooohh Ooooooohh    Oooooooh   OoooooohOooooooh
  
Dm    Am    Dm    Am 
Dm    Am    Dm    Am 

[Chorus]
Gm/D              Am/E                 
  I got caught out in the rain
Gm/D               
  If I die I don't care I'm in love
Am/E                                  
  I'm in love, I'm in love with this man
Gm/D               Bb            C 
  I got caught out, caught out, caught out
          Dm   Am  Dm   Am
  In the rain
          Dm   Am  Dm   Am
  In the rain

[Outro]
Dm           Am
In his name
Dm           Am
In his pain
Dm    Am    Dm    Am 
Dm    Am    Dm    Am 
Dm    Am    Dm    Am 
Dm    Am    Dm    Am 
Dm    Am    Dm    Am 
Dm    Am    Dm    Am 

Dm              Am        Dm    Am
Ain't nobody's business
Dm                  Am               Dm             Am        
Ain't nobody, ain't nobody, ain't nobody's business
Dm    Am    Dm    Am 
Dm    Am    Dm    Am 
Dm             Am
 I won't kiss and tell
Dm        Am     
 Like a spell

Dm

            
            
Suggest correction
Creating personal tab
Creating personal tab
You can edit any tab online and save it as your Personal.

You can edit, replace or remove any tab part or add personal notes – all changes will be seen only by you.

Personal tabs can be accessed anytime from any device, even offline.
Learn more »
comments
print report bad tab
4 comments total. Showing first comments.
+1 reply
schoben 3,352 Jun 11, 2016 01:41 PM

very good tab! congrats

+1 reply
komfy.kulakaw 92 Jun 13, 2016 05:12 PM

5 stars \m/

guest
You may want to rate the tab now too:
select rating
Wanna post a correction for this tab? Suggest correction