Oops, an error
Loading. Please wait.

Freedom Tab

version 1
version 1

Whole song

  • This is my rendition based on the worship team res... Show more
49 views 9 this week
no commentswrite comment
1 2 3 4 5
1 last vote to show rating
add to favorites
launch autoscroll
font size
0
reset
how to read this tab
guitar tuner
Autoscroll
slow
fast
+/-
esc
set tempo
stop
Help us to improve Ultimate-Guitar.com Take our survey!
×
Author
Difficulty
intermediate
About this tab version
This is my rendition based on the worship team resources where I currently worship. Much of the time I’m the only electric guitarist so I feel obligated to combine some of the Electric Guitar 1 and 2 parts. Really I just end up playing the most recognizable parts regardless if Electric 1 or 2. Enjoy and I’m certainly open to positive/productive feedback. Was this info helpful? Yes No
Key: D     BPM:143                                                  Tone: Clean/Distortion with sustain 
Ele Guitar 1/2                                                      Effects: Whole note delay and heavy reverb

Intro:
Rest - Acoustic starts (x–8)

Play – Repeat until Verse
Distortion    D shape/Bar w/1st
    D/F#                        G         Bm            
e|----------14----------14-----------15--------17-----|
B|------15----------15------------15--------15--------|
G|--14----------14----------14/16--------16-----------| 
D|----------------------------------------------------|
A|----------------------------------------------------|
E|----------------------------------------------------|
Verse 1:
Rest
    D2                              D2
    You came to set the captives free You came to bring us liberty
Harmonics
    Bm7                                 Gmaj7                           D/F#                      Gmaj7
    My sin and my rejection met Your blood and my acceptance Now I'm alive to bring You praise
e|--------12---------------------12------------|--------12-----------------------12-------------|
B|--7---------12------12---7------------12-----|--7---------12-------12----7---------------12—7-|
G|-----7----------12----------7------7------7--|-----7-----------12-----------7-----7----12-----|
D|---------------------------------------------|-------------------------------------12---------|
A|---------------------------------------------|------------------------------------------------|
E|---------------------------------------------|------------------------------------------------|

Chorus:
Play until end of vocals
  D/F#                    Gmaj7            D/F#   Gmaj7
     Where the Spirit of the Lord is, there is freedom    
     Where the Spirit of the Lord is, there is freedom
     Every chain is  broken  through   You,    Jesus 
     Where the Spirit of the Lord is, there is freedom Whoa oh, oh
e|-------------------------------------------------------------------------|
B|------7-------7-----------7-------7-----------7---------------7-------7--|
G|----------9-------9-----------9-----------9-------9-------9-------9------|
D|--7-------------------9---------------7---------------9------------------|
A|-------------------------------------------------------------------------|
E|-------------------------------------------------------------------------|

Instrumental/Intro:
Play after Chores
        D/F#                 G             Bm
e|----------14----------14-----------15----------17---|
B|------15----------15------------15----------15------|
G|--14----------14----------14/16----------16---------|
D|----------------------------------------------------|
A|----------------------------------------------------|
E|----------------------------------------------------|

VERSE 2:
       D2                                 D2
   Your blood has covered every sin Your grace empowers me to win
   My pain and my oppression met Your blood and my acceptance
   Now i'm alive to bring you praise
e|-------5----------5----------5----------5-----------5----------5-----|
B|----------7----------7----------7----------7-----------7----------7--|
G|--7-7--------7-7--------7-7--------7-7--------7--7--------7-7--------| 
D|---------------------------------------------------------------------|
A|---------------------------------------------------------------------|
E|---------------------------------------------------------------------|

Chorus:
Play until end of vocals
  D/F#                    Gmaj7            D/F#   Gmaj7
     Where the Spirit of the Lord is, there is freedom    
     Where the Spirit of the Lord is, there is freedom
     Every chain is  broken  through   You,    Jesus 
     Where the Spirit of the Lord is, there is freedom Whoa oh, oh
e|-------------------------------------------------------------------------|
B|------7-------7-----------7-------7-----------7---------------7-------7--|
G|----------9-------9-----------9-----------9-------9-------9-------9------|
D|--7-------------------9---------------7---------------9------------------|
A|-------------------------------------------------------------------------|
E|-------------------------------------------------------------------------|

Instrumental/Intro:
Play after Chores – x4                                Let ring out-Last time---|
       D/F#                     G                        Bm
e|----------14----------14--|-----------15-------17--|--14-----------|
B|------15----------15------|--------15-------15-----|--15-----------|
G|--14----------14----------|--14/16-------16--------|--14-----------|
D|--------------------------|------------------------|---------------|
A|--------------------------|------------------------|---------------|
E|--------------------------|------------------------|---------------|

Bridge:
Rest
    D  
    I'm free I'm free I'm free to dance and sing I'm free I'm free I'm free to shout it out
Harmonics
    D         G       D/F#         G             D         G       D/F#         G        Bm  G  D
    I'm free I'm free I'm free to dance and sing I'm free I'm free I'm free to worship You
e|-------5----------5----------5----------5----------5----------5----------5----------5-----|
B|----------7----------7----------7----------7----------7----------7----------7----------7--|
G|--7-7--------7-7--------7-7--------7-7--------7-7--------7-7--------7-7--------7-7--------| 
D|------------------------------------------------------------------------------------------|
A|------------------------------------------------------------------------------------------|
E|------------------------------------------------------------------------------------------|

Chorus:
Rest
  D/F#                    Gmaj7            D/F#   Gmaj7
     Where the Spirit of the Lord is, there is freedom    
     Where the Spirit of the Lord is, there is freedom
     Every chain is  broken  through   You,    Jesus 
     Where the Spirit of the Lord is, there is freedom Whoa oh, oh

************************************

| x   Dead note
| g   Grace note
| (n) Ghost note
| h   Hammer-on
| p   Pull-off
| r   Release
| >   Accented note
| t   Tapping
| b   Bend
| br  Bend release
| pb  Pre-bend
| pbr Pre-bend release
| /   Slide up
| \   Slide down
| ~   Vibrato
| s   Slap
| P   Pop
| PM  Palm mute
| TR  Trill
| N   Tremolo

************************************
Suggest correction
Give kudos to tab author, rate the tab!
1 2 3 4 5
comments
print report bad tab
guest
You may want to rate the tab now too:
select rating
Wanna post a correction for this tab? Suggest correction