Oops, an error
Loading. Please wait.

You Are Good Tab

version 1
version 1

Whole song

21,849 views 66 this week
no commentswrite comment
1 2 3 4 5
x 11
add to favorites
launch autoscroll
font size
0
reset
how to read this tab
guitar tuner
Autoscroll
slow
fast
+/-
esc
set tempo
stop
Help us to improve Ultimate-Guitar.com Take our survey!
×
Author
[Intro]
e|-------------------------------------------14-14-14-14-|
B|-14-14-14-14-14-14-14-14----------17-17-17-------------|
G|-------------------------16-16-16----------------------|
D|-------------------------------------------------------|
A|-------------------------------------------------------|
E|-------------------------------------------------------|

e|-------------------------------------------------------|
B|----------------------------17-17-17-14-14-14----------|
G|-------------------14-14-14----------------------------|
D|-16-16-16-16-16-16-------------------------------------|
A|-------------------------------------------------------|
E|-------------------------------------------------------| (x3)

e|-------------------------------------------14-14-14-14-|
B|-14-14-14-14-14-14-14-14----------17-17-17-------------|
G|-------------------------16-16-16----------------------|
D|-------------------------------------------------------|
A|-------------------------------------------------------|
E|-------------------------------------------------------|

e|-------------------------------------------------------|
B|-------------------------------------------------------|
G|-------------------14----------------------------------|
D|-16-16-16-16-16-16-------------------------------------|
A|-------------------------------------------------------|
E|-------------------------------------------------------|

[Chorus]
e|-------------------------------------------------------|
B|-14-14-14-14-14-14-14-14-14-14-14-14-14-14-14-14-------|
G|-------------------------------------------------------|
D|-------------------------------------------------------|
A|-------------------------------------------------------|
E|-------------------------------------------------------|

e|-------------------------------------------14-14-14-14-|
B|-14-14-14-14-14-14-14-14----------17-17-17-------------|
G|-------------------------16-16-16----------------------|
D|-------------------------------------------------------|
A|-------------------------------------------------------|
E|-------------------------------------------------------|

e|-------------------------------------------------------|
B|-------------------------------------------------------|
G|-------------------------------------------------------|
D|-16-16-16-16-16-16-16-16-16-16-16-16-16-16-16-16-------|
A|-------------------------------------------------------|
E|-------------------------------------------------------|

e|-------------------------------------------------------|
B|----------17-17-17-14-14-14----------------------------|
G|-14-14-14----------------------------------------------|
D|-------------------------------------------------------|
A|-------------------------------------------------------|
E|-------------------------------------------------------|
Suggest correction
comments
print report bad tab
guest
You may want to rate the tab now too:
select rating
Wanna post a correction for this tab? Suggest correction