Oops, an error
Loading. Please wait.

You Are Good Chords

version 2
version 2

Whole song

12,711 views 69 this week
no commentswrite comment
1 2 3 4 5
excellent!
x 6
add to favorites
launch autoscroll
font size
0
reset
transpose
0
reset
simplify chords
display chords
guitar tuner
Autoscroll
slow
fast
+/-
esc
set tempo
stop
Help us to improve Ultimate-Guitar.com Take our survey!
×
Author
Bethel Live
You are Good
From "Be Lifted High"
Tabbed by thatchadmiller (Twitter)

*To make this easier to play, play it capo 2 in G position, transpose this down a whole step, however 
the chart is in the original key of A*

[Intro]

(tab below)

A - E/G# - D


[Verse 1]

A
I want to scream it out from every mountain top
D
Your goodness knows no bounds, Your goodness never stops
F#m                                  E/G#
Your mercy follows me, Your kindness fills my life
A                E
Your Love amazes me


[Chorus 1]

A                                               
I sing because You are good and I dance because You are good
D
And I shout because You are good, You are good (to me)


[Verse 2]

A
Nothing and no one comes anywhere close to You
D
The earth and oceans deep only reflect this truth
F#m                                  E/G#
And in my darkest night You shine as bright as day
A                E
Your Love amazes me


[Chorus 2] (x2)

A                                               E/G#
I sing because You are good and I dance because You are good
D
And I shout because You are good, You are good (to me)


[Bridge]

       Bm7                    D
With a cry of praise my heart will proclaim
        A
You are good You are good
       Bm7                 D
In the sun or rain my life celebrates
        A
You are good You are good
       Bm7                    D
With a cry of praise my heart will proclaim
        A            E
You are good You are good
       Bm7                 D
In the sun or rain my life celebrates
        A            E
You are good You are good


[Chorus 2]

E/G#
e|--4---|
B|--5---|
G|--4---|
D|--6---|
A|--7---|
E|--4---|
(No real need to play the G-B-E strings on this)



Lead tab

[Intro/Interlude]
 
e|----------------------------------12-12-12-14-14-14-14-|
B|-14-14-14-14-14-14-14-14-12-12-12----------------------|
G|-------------------------------------------------------|
D|-------------------------------------------------------|
A|-------------------------------------------------------|
E|-------------------------------------------------------|

e|----------------------------12-12-12-------------------|
B|-------------------------------------14-14-------------|
G|-11-11-11-11-11-11-14-14-14----------------------------|
D|-------------------------------------------------------|
A|-------------------------------------------------------|
E|-------------------------------------------------------| 
(go out on the 1st -14- before the verse)


[Chorus]

 (same as intro riff, just holding the notes a little longer)
e|-------------------------------------------------------|
B|-14-14-14-14-14-14-14-14-14-14-14-14-14-14-14-14-------|
G|-------------------------------------------------------|
D|-------------------------------------------------------|
A|-------------------------------------------------------|
E|-------------------------------------------------------|

e|----------------------------------12-12-12-14-14-14-14-|
B|-14-14-14-14-14-14-14-14-12-12-12----------------------|
G|-------------------------------------------------------|
D|-------------------------------------------------------|
A|-------------------------------------------------------|
E|-------------------------------------------------------|

e|-------------------------------------------------------|
B|-------------------------------------------------------|
G|-11-11-11-11-11-11-11-11-11-11-11-11-11----------------|
D|-------------------------------------------------------|
A|-------------------------------------------------------|
E|-------------------------------------------------------|

e|----------12-12-12-------------------------------------|
B|-------------------14-14-14----------------------------|
G|-14-14-14----------------------------------------------|
D|-------------------------------------------------------|
A|-------------------------------------------------------|
E|-------------------------------------------------------|



If you have any input or corrections, hit me up on Twitter and 
let me know if you have any songs you need help with. God bless!
Suggest correction
comments
print report bad tab
guest
You may want to rate the tab now too:
select rating
Please do not post tabs as comments. Select "correction" instead!