Oops, an error
Loading. Please wait.

Ever Be tab

7,968 views 105 this week
no commentswrite comment
1 2 3 4 5
x 21
add to favorites
×
Save as Personal and add changes to this tab that will be seen only by you. Learn more ›
×
You can save this tab as Personal to edit and correct it or add notes. All changes will be seen only by you. Learn more »
launch autoscroll
font size
0
reset
how to read this tab
guitar tuner
edit
Autoscroll
slow
fast
+/-
esc
set tempo
stop
Author
Difficulty
Bethel Music
"Ever Be"

(/) Slide Up  (\) Slide Down  (h) Hammer On  (p) Pull Off  (b) Bend (r) Release (v) Vibrato

Intro

   D
E|----------0----------0----------0----------0-|
B|----10---------10---------10---------10------|
G|-------11---------11---------11---------11---|
D|-12---------12---------12---------12---------|
A|---------------------------------------------|
E|---------------------------------------------|

   Bm9
E|----------0----------0----------0----------0-|
B|----10---------10---------10---------10------|
G|-------11---------11---------11---------11---|
D|-11---------11---------11---------11---------|
A|---------------------------------------------|
E|---------------------------------------------|

   A
E|---------0---------0---------0---------0-|
B|----10--------10--------10--------10-----|
G|-------9---------9---------9---------9---|
D|-11--------11--------11--------11--------|
A|-----------------------------------------|
E|-----------------------------------------|


E|---------0---------0---------0---------0-|
B|---10--------10--------10--------10------|
G|------11--------11--------11--------11---|
D|-9---------9---------9---------9---------|
A|-----------------------------------------|
E|-----------------------------------------|

Verse 1:
D                   Em                     G
Your love is devoted, like a ring of solid gold
                         F#m      A              D
Like a vow that is tested, like a covenant of old
                     Em                   G
Your love is enduring, through the winter rain
                      F#m    A
And beyond the horizon, with mercy for today

Pre-Chorus:
G                 D                           A
Faithful You have been, and faithful you will be
                       Em
You pledge yourself to me, and it’s why I sing

Chorus:

Swells for the chords:

      G    D   Bm    A
E|--------------7----------|
B|----8----7----7----10----|
G|----7----7----7----9-----|
D|----9----7----9----11----|
A|-------------------------|
E|-------------------------|
     G                         D
Your praise will ever be on my lips, ever be on my lips
     Bm                        A
Your praise will ever be on my lips, ever be on my lips (x2)

=========   Intro riff again (Riff 1) ===========

Verse 2:

(more swells)

D                    Em                       G
You Father the orphan, Your kindness makes us whole
                         F#m        A
You shoulder our weakness, and Your strength becomes our own
D                        Em               G
You’re making me like you, clothing me in white
                          F#m   A
Bringing beauty from ashes, for You will have Your bride

Pre-Chorus:
G               D                         A
Free of all her guilt, and rid of all her shame
                      Em
And known by her true name, and it’s why I sing

Chorus 2:
    G               D               Bm              A
E|----------------------------------------------------------------------|
B|--17--15----------17--15----------17--15----------17--14----------17--|
G|----------14--------------14--------------14--------------14----------|
D|--------------16--------------16--------------16--------------14------|
A|----------------------------------------------------------------------|
E|----------------------------------------------------------------------|

     G                         D
Your praise will ever be on my lips, ever be on my lips
     Bm                        A
Your praise will ever be on my lips, ever be on my lips (x2)


Bridge:


E|----------0----------0----------0----------0----------0----------0----------0----------0-|
B|----10---------10---------10---------10---------10---------10---------10---------10------|
G|-------11---------11---------11---------11---------11---------11---------11---------11---|
D|-12---------12---------12---------12---------12---------12---------12---------12---------|
A|-----------------------------------------------------------------------------------------|
E|-----------------------------------------------------------------------------------------|

E|----------0----------0----------0----------0----------0-------------------0----------0-|
B|----12---------12---------12---------12---------15---------15-------15---------15------|
G|-------11---------11---------11---------11---------14---------14-------14---------14---|
D|-12---------12---------12---------12---------16---------16-------16---------16---------|
A|---------------------------------------------------------------------------------------|
E|---------------------------------------------------------------------------------------|

D                    A
You will be praised, You will be praised
Bm                             G                  D
With angels and saints we sing worthy are You Lord
                     Em
You will be praised, You will be praised
Bm                             G                  D
With angels and saints we sing worthy are You Lord  (x2)

Chorus 3:
    G               D               Bm              A
E|----------------------------------------------------------------------|
B|--17--15----------17--15----------17--15----------17--14----------17--|
G|----------14--------------14--------------14--------------14----------|
D|--------------16--------------16--------------16--------------14------|
A|----------------------------------------------------------------------|
E|----------------------------------------------------------------------|

     G                         D
Your praise will ever be on my lips, ever be on my lips
     Bm                        A
Your praise will ever be on my lips, ever be on my lips (x2)

            
            
Suggest correction
Creating personal tab
Creating personal tab
You can edit any tab online and save it as your Personal.

You can edit, replace or remove any tab part or add personal notes – all changes will be seen only by you.

Personal tabs can be accessed anytime from any device, even offline.
Learn more »
comments
print report bad tab
guest
You may want to rate the tab now too:
select rating
Wanna post a correction for this tab? Suggest correction