Oops, an error
Loading. Please wait.

For The Cross tab

version 2
version 2

Whole song

  • This is my rendition based on the worship team res... Show more
91 views 6 this week
no commentswrite comment
1 2 3 4 5
3 more votes to show rating
add to favorites
×
Save as Personal and add changes to this tab that will be seen only by you. Learn more ›
×
You can save this tab as Personal to edit and correct it or add notes. All changes will be seen only by you. Learn more »
launch autoscroll
font size
0
reset
how to read this tab
guitar tuner
edit
Autoscroll
slow
fast
+/-
esc
set tempo
stop
About this tab version
This is my rendition based on the worship team resources where I currently worship. Much of the time I’m the only electric guitarist so I feel obligated to combine some of the Electric Guitar 1 and 2 parts. Really I just end up playing the most recognizable parts regardless if Electric 1 or 2. Enjoy and I’m certainly open to positive/productive feedback. Was this info helpful? Was this info helpful? Yes No
Key: F     BPM:68  Capo:1st fret                                               Tone: Clean/Distortion
Electric Guitar 2                                                              Effects: Delay/Reverb
Chords Are relevant to Capo                                                    Notes Are
Not relevant to capo

[Intro]
    E
Palm Muted - 8th note, Clean
e|--------|
B|--------|
G|---7t---|
D|--------|
A|--------|
E|--------|

[Verse 1]
                E                      F#m               A2
   The life You gave Your body was bro-ken Your love poured out You bled and You died
for me
e|------------------------------------------------------------------------------------------|
B|------------------------------------------------------------------------------------------|
G|---------------------------------------------------------7t-------------------------------|
D|---------------7t---------------------8t--------------------------------------------------|
A|------------------------------------------------------------------------------------------|
E|------------------------------------------------------------------------------------------|
                C#M         B                              A2                    B
    There on that cross You breathed Your last as you were crucified You gave it all for me
e|-------------------------------------------------------------------------------10---------|
B|------------------------------------------------------------------------------10----------|
G|----------------10t--------9t----------------------------7t------------------7------------|
D|------------------------------------------------------------------------------------------|
A|------------------------------------------------------------------------------------------|
E|------------------------------------------------------------------------------------------|

[Chorus 1]
    A2  F#m                 E          A2     F#m                E
        Halle-lujah, what a Savior           Halle-lujah, what a friend
e|------------0--------0-------0----0-------------0--------0--------0----0--|
B|--------10--------8-------6----6------------10--------8--------6----6-----|
G|--------------------------------------------------------------------------|
D|-10/12---------8-------7-------------10/12---------8--------7-------------|
A|--------------------------------------------------------------------------|
E|--------------------------------------------------------------------------|
    A2  F#m                E                A2  F#m                E
        Hallelujah, what a forever          We  thank You for the cross
e|------------0--------0------0-----0-------------0--------0--------0----0--|----------|
B|--------10--------8-------6-----6------------10--------8--------6----6----|----------|
G|--------------------------------------------------------------------------|----7t----|
D|-10/12---------8-------7-------------10/12---------8--------7-------------|----------|
A|--------------------------------------------------------------------------|----------|
E|--------------------------------------------------------------------------|----------|

[Interlude]
    E        F#m     A2           C#M      A2
e|------------------------------------------------------|
B|------------------------------------------------------|
G|-------------------7tx16------10tx16---7tx8-----------|
D|--7tx8----8tx8----------------------------------7tx8--|
A|------------------------------------------------------|
E|------------------------------------------------------|

[Verse 2]
                   E                              F#m              A2
    There in the ground Sealed in the darkness  Lifeless laid
e|--------------------------------------------------------------------|
B|--------------------------------------------------------------------|
G|--------------------------------------------------------------7t----|
D|-----------------7t----------------------------8t-------------------|
A|--------------------------------------------------------------------|
E|--------------------------------------------------------------------|
                                 C#m    B             E           A2              B
   The frame of the Fathers son In agony He watched His only Son be sacrificed He gave
it all for me
e|-------------------------------------------------------------------------------10---------|
B|------------------------------------------------------------------------------10----------|
G|-------------------------------10t----9t------------------------7t-----------7------------|
D|---------------------------------------------------10t------------------------------------|
A|------------------------------------------------------------------------------------------|
E|------------------------------------------------------------------------------------------|

[Chorus 2]
    A2     F#m      E                     A2    F#m     E
        Halle-lujah, what a Savior           Halle-lujah, what a friend
e|------------0--------0-------0----0-------------0--------0--------0----0--|
B|--------10--------8-------6----6------------10--------8--------6----6-----|
G|--------------------------------------------------------------------------|
D|-10/12---------8-------7-------------10/12---------8--------7-------------|
A|--------------------------------------------------------------------------|
E|--------------------------------------------------------------------------|
    A2  F#m                E                A2  F#m               E
        Hallelujah, what a forever          We  thank You for the cross
(Build to Verse 3)
e|------------0--------0------0-------------------0--------0--------0------|----------|
B|--------10--------8-------6----6------------10--------8--------6----6----|----------|
G|-------------------------------------------------------------------------|----7t----|
D|-10/12---------8-------7-------------10/12---------8--------7------------|----------|
A|-------------------------------------------------------------------------|----------|
E|-------------------------------------------------------------------------|----------|

[Verse 3]
               E                             F#m              A2
   But on that day What seemed as the darkest hour A violent hope
Heavy Distortion
e|-----------------------------------------------------------------|
B|-----------------------------------------------------------------|
G|------------------------------------------------------------7t---|
D|-------------7t-----------------------------8t-------------------|
A|-----------------------------------------------------------------|
E|-----------------------------------------------------------------|
               C                      C#m     C            E           A2                C
Broke through and shook the ground And as You rose The Light of all the world was magnified
And You rose in victory
e|------------------------------------------------------------------------------------------|
B|------------------------------------------------------------------------------------------|
G|-------------9t-------------------10t-----9t-----------------------7t----------------9t---|
D|-------------------------------------------------------10t--------------------------------|
A|------------------------------------------------------------------------------------------|
E|------------------------------------------------------------------------------------------|

[Chorus]
    A2  F#m                 E          A2    F#m                  E
        Halle-lujah, what a Savior           Halle-lujah, what a friend
e|------------0--------0-------0------------------0--------0-------0----|
B|--------10--------8-------6----6------------10--------8--------6---6--|
G|----------------------------------------------------------------------|
D|-10/12---------8-------7-------------10/12---------8--------7---------|
A|----------------------------------------------------------------------|
E|----------------------------------------------------------------------|
    A2  F#m                E                A2 F#m                 E
        Hallelujah, what a forever          We  thank You for the cross
e|------------0--------0------0-------------------0--------0-------0----|----------|
B|--------10--------8-------6---6-------------10--------8--------6---6--|----------|
G|----------------------------------------------------------------------|----7t----|
D|-10/12---------8-------7-------------10/12---------8--------7---------|----------|
A|----------------------------------------------------------------------|----------|
E|----------------------------------------------------------------------|----------|

[Instrumental]
Follow Bass
       E     E     F#m7  A2     Cm        A2     E     E    F#m7   A2     Cm         A2
e|-------------------------------------------------------------------------------------|
B|-------------------------------------------------------------------------------------|
G|-------------------------------------------------------------------------------------|
D|-------------------------------------------------------------------------------------|
A|-------------------------------------------------------------------------------------|
E|--1-1---1-1---3-3---6-6-6--10-10-10--6-6---1-1---1-1---3-3---6-6-6---10-10-10---6-6--|
       E     E     F#m7  A2     Cm        A2     E     E    F#m7   A2     Cm         A2
Chords - On Beat-
e|--1t----1t----3t----1t-----5t--------1t----1t----1t----3t-----1t-----5t---------1t--|
B|--1t----1t----3t----1t-----6t--------1t----1t----1t----3t-----1t-----6t---------1t--|
G|--2t----2t----3t----3t-----7t--------3t----2t----2t----3t-----3t-----7t---------3t--|
D|--3t----3t----3t----3t-----7t--------3t----3t----3t----3t-----3t-----7t---------3t--|
A|--3t----3t----x-----1t-----5t--------1t----3t----3t----xt-----1t-----5t---------1t--|
E|--1t----1t----3t-----------5t--------------1t----1t----3t------------5t-------------|

[End tag]
    A2    F#m               E        A2    F#m               E
    And though our sins are scarlet  You have made us white as snow
Swells, Shrill, Clean (x-2)
e|--1-----3-----------------1--------1-----3-----------------1-----|
B|--1-----3-----------------1--------1-----3-----------------1-----|
G|--3-----3-----------------2--------3-----3-----------------2-----|
D|--3-----3-----------------3--------3-----3-----------------3-----|
A|--1-----x-----------------3--------1-----x-----------------3-----|
E|--------3-----------------1--------------3-----------------1-----|

[Chorus]                                                1
    A2  F#m                 E          A2    F#m                 E
        Halle-lujah, what a Savior           Halle-lujah, what a friend
        Hallelujah, what a forever          We  thank You for the cross
Softly
e|------------0--------0-------0------------------0--------0-------0----|
B|--------10--------8-------6----6------------10--------8--------6---6--|
G|----------------------------------------------------------------------|
D|-10/12---------8-------7-------------10/12---------8--------7---------|
A|----------------------------------------------------------------------|
E|----------------------------------------------------------------------|



[Notes]
t = repeat note
tx = repeat note as many times as indicated (ie 16 times, 32 times etc)

            
            
Suggest correction
Creating personal tab
Creating personal tab
You can edit any tab online and save it as your Personal.

You can edit, replace or remove any tab part or add personal notes – all changes will be seen only by you.

Personal tabs can be accessed anytime from any device, even offline.
Learn more »
Give kudos to tab author, rate the tab!
1 2 3 4 5
comments
print report bad tab
guest
You may want to rate the tab now too:
select rating
Wanna post a correction for this tab? Suggest correction