Oops, an error
Loading. Please wait.

Forgiven Tab

58 views 3 this week
no commentswrite comment
1 2 3 4 5
x 6
add to favorites
launch autoscroll
font size
0
reset
how to read this tab
guitar tuner
Autoscroll
slow
fast
+/-
esc
set tempo
stop
Help us to improve Ultimate-Guitar.com Take our survey!
×
Author
Difficulty
intermediate
                                     /// Forgiven by Bethel ///
Tabbed by Izach Prince Paul
God bless.



[Intro]

[Lead Guitar]
e|-----------12-12----------14-14----------12-12----------12-12--------------|
B|--14-12h14-------14-12h14-------14-12h14-------14-12h14-------12-----------|
G|---------------------------------------------------------------------------|
D|---------------------------------------------------------------------------|
A|---------------------------------------------------------------------------|
E|---------------------------------------------------------------------------|

e|----------------------|----------------------------------------------------|
B|-----14-12----14-12---|----14-12----14-12-------7-5/7----10----14----------|
G|--14-------14---------|--14------14--------13\9----------------------------|
D|----------------------|----------------------------------------------------|
A|----------------------|----------------------------------------------------|
E|----------------------|----------------------------------------------------|

[Verse 1]
Only piano is playing.

[Chorus]

[Lead Guitar]
e|----------------------------------------------------------------------------------------------------|
B|--14----14----14----14----14----14----12----15----14----14----14----14----14----14----12----15------|
G|-----14----14----14----14----14----14----14----14----14----14----14----14----14----14----14----14---|
D|----------------------------------------------------------------------------------------------------|
A|----------------------------------------------------------------------------------------------------|
E|----------------------------------------------------------------------------------------------------|

e|-------------------------------------------------------------------------------|
B|--12----12----12----10--12----12----12----10--7---7---7---5-7---7---7---10/14--|
G|-----14----14----14--------14----14----14-------9---9---9-----9---9---9--------|
D|-------------------------------------------------------------------------------|
A|-------------------------------------------------------------------------------|
E|-------------------------------------------------------------------------------|

[Verse 2]

[Acoustic Guitar]
Here I stand in the light of Your glory and grace
    A
e|------|
B|--3---|
G|--3---|
D|--3---|
A|------|
E|------|

Where Heaven's love and justice meet
   F#m
e|--2---|
B|--2---|
G|--2---|
D|--4---|
A|--4---|
E|--2---|

Now I live for the One who has called me by name
    E
e|------|
B|------|
G|--1---|
D|--2---|
A|--2---|
E|------|

Who is risen and alive in me
    D
e|--2---|
B|--3---|
G|--2---|
D|------|
A|------|
E|------|

[Chorus 2] 

[Lead Guitar]
e|----------------------------------------------------------------------------------------------------|
B|--14----14----14----14----14----14----12----15----14----14----14----14----14----14----12----15------|
G|-----14----14----14----14----14----14----14----14----14----14----14----14----14----14----14----14---|
D|----------------------------------------------------------------------------------------------------|
A|----------------------------------------------------------------------------------------------------|
E|----------------------------------------------------------------------------------------------------|

e|-------------------------------------------------------------------------------|
B|--12----12----12----10--12----12----12----10--7---7---7---5-7---7---7---10/14--|
G|-----14----14----14--------14----14----14-------9---9---9-----9---9---9--------|
D|-------------------------------------------------------------------------------|
A|-------------------------------------------------------------------------------|
E|-------------------------------------------------------------------------------|

[Acoustic Guitar]
I am forgiven at the foot of the cross
    A
e|------|
B|--3---|
G|--3---|
D|--3---|
A|------|
E|------|

I am accepted by the power of Your love
   F#m
e|--2---|
B|--2---|
G|--2---|
D|--4---|
A|--4---|
E|--2---|

My every stain is washed away
    E
e|------|
B|------|
G|--1---|
D|--2---|
A|--2---|
E|------|

I am forgiven
    D
e|--2---|
B|--3---|
G|--2---|
D|------|
A|------|
E|------|

[Interlude 1]

[Lead Guitar]
e|-----------12-12----------14-14----------12-12----------12-12--------------|
B|--14-12h14-------14-12h14-------14-12h14-------14-12h14-------12-----------|
G|---------------------------------------------------------------------------|
D|---------------------------------------------------------------------------|
A|---------------------------------------------------------------------------|
E|---------------------------------------------------------------------------|

e|----------------------|----------------------------------------------------|
B|-----14-12----14-12---|----14-12----14-12-------7-5/7----10----14----------|
G|--14-------14---------|--14------14--------13\9----------------------------|
D|----------------------|----------------------------------------------------|
A|----------------------|----------------------------------------------------|
E|----------------------|----------------------------------------------------|

[Acoustic Guitar]
    A         F#m         E          D
e|------|  e|--2---|  e|------|  e|--2---|
B|--3---|  B|--2---|  B|------|  B|--3---|
G|--3---|  G|--2---|  G|--1---|  G|--2---|
D|--3---|  D|--4---|  D|--2---|  D|------|
A|------|  A|--4---|  A|--2---|  A|------|
E|------|  E|--2---|  E|------|  E|------|

[Rhythm Guitar]
    A         F#m         E          D
e|------|  e|------|  e|------|  e|------|
B|--10--|  B|--7---|  B|------|  B|------|
G|--9---|  G|--6---|  G|--9---|  G|--7---|
D|--7---|  D|--4---|  D|--9---|  D|--7---|
A|------|  A|------|  A|--7---|  A|--5---|
E|------|  E|------|  E|------|  E|------|

[Bridge 1]

[Lead Guitar]
e|-----------12-12----------14-14----------12-12----------12-12--------------|
B|--14-12h14-------14-12h14-------14-12h14-------14-12h14-------12-----------|
G|---------------------------------------------------------------------------|
D|---------------------------------------------------------------------------|
A|---------------------------------------------------------------------------|
E|---------------------------------------------------------------------------|

e|----------------------|----------------------------------------------------|
B|-----14-12----14-12---|----14-12----14-12-------7-5/7----10----14----------|
G|--14-------14---------|--14------14--------13\9----------------------------|
D|----------------------|----------------------------------------------------|
A|----------------------|----------------------------------------------------|
E|----------------------|----------------------------------------------------|

[Rhythm Guitar]
I'm embraced at the foot of the cross
    A
e|------|
B|--10--|
G|--9---|
D|--7---|
A|------|
E|------|

By the love and the mercies You have lavished on us
   F#m
e|------|
B|--7---|
G|--6---|
D|--4---|
A|------|
E|------|

My every stain is washed away
    E
e|------|
B|------|
G|--9---|
D|--9---|
A|--7---|
E|------|

I am forgiven
    D
e|------|
B|------|
G|--7---|
D|--7---|
A|--5---|
E|------|

[Acoustic Guitar]
I'm embraced at the foot of the cross
    A
e|------|
B|--3---|
G|--3---|
D|--3---|
A|------|
E|------|

By the love and the mercies You have lavished on us
   F#m
e|--2---|
B|--2---|
G|--2---|
D|--4---|
A|--4---|
E|--2---|

My every stain is washed away
    E
e|------|
B|------|
G|--1---|
D|--2---|
A|--2---|
E|------|

I am forgiven
    D
e|--2---|
B|--3---|
G|--2---|
D|------|
A|------|
E|------|

[Interlude 2]

[Rhythm Guitar]
    A         F#m         E          D
e|------|  e|------|  e|------|  e|------|
B|--10--|  B|--7---|  B|------|  B|------|
G|--9---|  G|--6---|  G|--9---|  G|--7---|
D|--7---|  D|--4---|  D|--9---|  D|--7---|
A|------|  A|------|  A|--7---|  A|--5---|
E|------|  E|------|  E|------|  E|------|

[Acoustic Guitar]
    A         F#m         E          D
e|------|  e|--2---|  e|------|  e|--2---|
B|--3---|  B|--2---|  B|------|  B|--3---|
G|--3---|  G|--2---|  G|--1---|  G|--2---|
D|--3---|  D|--4---|  D|--2---|  D|------|
A|------|  A|--4---|  A|--2---|  A|------|
E|------|  E|--2---|  E|------|  E|------|

[Bridge 2]

[Lead Guitar]
e|-----------12-12----------14-14----------12-12----------12-12--------------|
B|--14-12h14-------14-12h14-------14-12h14-------14-12h14-------12-----------|
G|---------------------------------------------------------------------------|
D|---------------------------------------------------------------------------|
A|---------------------------------------------------------------------------|
E|---------------------------------------------------------------------------|

e|----------------------|----------------------------------------------------|
B|-----14-12----14-12---|----14-12----14-12-------7-5/7----10----14----------|
G|--14-------14---------|--14------14--------13\9----------------------------|
D|----------------------|----------------------------------------------------|
A|----------------------|----------------------------------------------------|
E|----------------------|----------------------------------------------------|

[Rhythm Guitar]
I'm embraced at the foot of the cross
    A
e|------|
B|--10--|
G|--9---|
D|--7---|
A|------|
E|------|

By the love and the mercies You have lavished on us
   F#m
e|------|
B|--7---|
G|--6---|
D|--4---|
A|------|
E|------|

My every stain is washed away
    E
e|------|
B|------|
G|--9---|
D|--9---|
A|--7---|
E|------|

I am forgiven
    D
e|------|
B|------|
G|--7---|
D|--7---|
A|--5---|
E|------|

[Acoustic Guitar]
I'm embraced at the foot of the cross
    A
e|------|
B|--3---|
G|--3---|
D|--3---|
A|------|
E|------|

By the love and the mercies You have lavished on us
   F#m
e|--2---|
B|--2---|
G|--2---|
D|--4---|
A|--4---|
E|--2---|

My every stain is washed away
    E
e|------|
B|------|
G|--1---|
D|--2---|
A|--2---|
E|------|

I am forgiven
    D
e|--2---|
B|--3---|
G|--2---|
D|------|
A|------|
E|------|

************************************
| h   Hammer-on
| /   Slide up
| \   Slide down
************************************
Suggest correction
comments
print report bad tab
guest
You may want to rate the tab now too:
select rating
Wanna post a correction for this tab? Suggest correction