Oops, an error
Loading. Please wait.

In Your Light Tab

19 views 3 this week
no commentswrite comment
1 2 3 4 5
3 more votes to show rating
add to favorites
launch autoscroll
font size
0
reset
how to read this tab
guitar tuner
Autoscroll
slow
fast
+/-
esc
set tempo
stop
Help us to improve Ultimate-Guitar.com Take our survey!
×
Author
Difficulty
novice
                               /// In Your Light by Bethel Music ///

Tabbed by Izach Prince Paul
God bless.

[Intro]

[Lead Guitar]
e|--4---4-------6---6-------4---4---------------------------|
B|----6---6-4-2---6---2-4-6---6---6-4-2-7-6-4-2-2-4-6-------|
G|----------------------------------------------------------|
D|----------------------------------------------------------|
A|----------------------------------------------------------|
E|----------------------------------------------------------|

e|--4---4-------6---6-------4---4---------------------------|
B|----6---6-4-2---6---2-4-6---6---6-4-2-7-6-4-2-2-4-6-2-----|
G|----------------------------------------------------------|
D|----------------------------------------------------------|
A|----------------------------------------------------------|
E|----------------------------------------------------------|

[Rhythm Guitar]
    C#          F#         G#        A#m        G#/C
e|-------|  e|------|  e|------|  e|------|  e|--4---|
B|-------|  B|------|  B|------|  B|------|  B|--1---|
G|--6----|  G|--3---|  G|--5---|  G|------|  G|--1---|
D|--6----|  D|--4---|  D|--6---|  D|--8---|  D|--1---|
A|--4----|  A|--4---|  A|--6---|  A|--8---|  A|--3---|
E|-------|  E|--2---|  E|--4---|  E|--6---|  E|------|

[Chorus 1]

[Lead Guitar]
e|------------------------------4------------------------------6--|
B|--6-6-6-6-6-6-6-6-6-6-6-6-4h6---6-6-6-6-6-6-6-6-6-6-6-6--4h6----|
G|----------------------------------------------------------------|
D|----------------------------------------------------------------|
A|----------------------------------------------------------------|
E|----------------------------------------------------------------|

e|-------------------------------4--------------------------------|
B|---6-6-6-6-6-6-6-6-6-6-6-6-4h6---7-7-7-6-6-6-4-4-4-2-2-2-2-4-6--|
G|----------------------------------------------------------------|
D|----------------------------------------------------------------|
A|----------------------------------------------------------------|
E|----------------------------------------------------------------|

e|------------------------------4------------------------------6--|
B|--6-6-6-6-6-6-6-6-6-6-6-6-4h6---6-6-6-6-6-6-6-6-6-6-6-6--4h6----|
G|----------------------------------------------------------------|
D|----------------------------------------------------------------|
A|----------------------------------------------------------------|
E|----------------------------------------------------------------|

e|-------------------------------4---------------------------------|
B|---6-6-6-6-6-6-6-6-6-6-6-6-4h6---7-7-7-6-6-6-4-4-4-2-2-2-2-4-6-2-|
G|-----------------------------------------------------------------|
D|-----------------------------------------------------------------|
A|-----------------------------------------------------------------|
E|-----------------------------------------------------------------|

[Rhythm Guitar]
You've turned my tears of sadness...
    C#         
e|-------|  
B|-------|  
G|--6----|  
D|--6----|  
A|--4----|  
E|-------|  

into such joy and gladness...
     F#      
 e|------| 
 B|------|
 G|--3---|
 D|--4---| 
 A|--4---| 
 E|--2---|

My heart can't keep it in I'm...
     G#     
 e|------|  
 B|------|  
 G|--5---|  
 D|--6---|  
 A|--6---|  
 E|--4---|  

shouting, shouting
     A#m        G#/C
 e|------|  e|--4---|
 B|------|  B|--1---|
 G|------|  G|--1---|
 D|--8---|  D|--1---|
 A|--8---|  A|--3---|
 E|--6---|  E|------|

[Interlude 1]

[Rhythm Guitar]
  C# octave         
e|-------|  
B|-------|  
G|--6----|  
D|-------|  
A|--4----|  
E|-------|  

[Chorus 2]

[Lead Guitar]
e|------------------------------4------------------------------6--|
B|--6-6-6-6-6-6-6-6-6-6-6-6-4h6---6-6-6-6-6-6-6-6-6-6-6-6--4h6----|
G|----------------------------------------------------------------|
D|----------------------------------------------------------------|
A|----------------------------------------------------------------|
E|----------------------------------------------------------------|

e|-------------------------------4--------------------------------|
B|---6-6-6-6-6-6-6-6-6-6-6-6-4h6---7-7-7-6-6-6-4-4-4-2-2-2-2-4-6--|
G|----------------------------------------------------------------|
D|----------------------------------------------------------------|
A|----------------------------------------------------------------|
E|----------------------------------------------------------------|

e|------------------------------4------------------------------6--|
B|--6-6-6-6-6-6-6-6-6-6-6-6-4h6---6-6-6-6-6-6-6-6-6-6-6-6--4h6----|
G|----------------------------------------------------------------|
D|----------------------------------------------------------------|
A|----------------------------------------------------------------|
E|----------------------------------------------------------------|

e|-------------------------------4---------------------------------|
B|---6-6-6-6-6-6-6-6-6-6-6-6-4h6---7-7-7-6-6-6-4-4-4-2-2-2-2-4-6-2-|
G|-----------------------------------------------------------------|
D|-----------------------------------------------------------------|
A|-----------------------------------------------------------------|
E|-----------------------------------------------------------------|

[Rhythm Guitar]
You've turned my tears of sadness...
    C#         
e|-------|  
B|-------|  
G|--6----|  
D|--6----|  
A|--4----|  
E|-------|  

into such joy and gladness...
     F#      
 e|------| 
 B|------|
 G|--3---|
 D|--4---| 
 A|--4---| 
 E|--2---|

My heart can't keep it in I'm...
     G#     
 e|------|  
 B|------|  
 G|--5---|  
 D|--6---|  
 A|--6---|  
 E|--4---|  

shouting, shouting
     A#m        G#/C
 e|------|  e|--4---|
 B|------|  B|--1---|
 G|------|  G|--1---|
 D|--8---|  D|--1---|
 A|--8---|  A|--3---|
 E|--6---|  E|------|

[Interlude 2]

[Lead Guitar]
e|--4---4-------6---6-------4---4---------------------------|
B|----6---6-4-2---6---2-4-6---6---6-4-2-7-6-4-2-2-4-6-------|
G|----------------------------------------------------------|
D|----------------------------------------------------------|
A|----------------------------------------------------------|
E|----------------------------------------------------------|

e|--4---4-------6---6-------4---4---------------------------|
B|----6---6-4-2---6---2-4-6---6---6-4-2-7-6-4-2-2-4-6-2-----|
G|----------------------------------------------------------|
D|----------------------------------------------------------|
A|----------------------------------------------------------|
E|----------------------------------------------------------|

[Rhythm Guitar]
    C#          F#         G#        A#m        G#/C
e|-------|  e|------|  e|------|  e|------|  e|--4---|
B|-------|  B|------|  B|------|  B|------|  B|--1---|
G|--6----|  G|--3---|  G|--5---|  G|------|  G|--1---|
D|--6----|  D|--4---|  D|--6---|  D|--8---|  D|--1---|
A|--4----|  A|--4---|  A|--6---|  A|--8---|  A|--3---|
E|-------|  E|--2---|  E|--4---|  E|--6---|  E|------|

[Bridge]

[Rhythm Guitar]
Woah-oh, woah-oh...
    C#          F#         G#        A#m        G#/C
e|-------|  e|------|  e|------|  e|------|  e|--4---|
B|-------|  B|------|  B|------|  B|------|  B|--1---|
G|--6----|  G|--3---|  G|--5---|  G|------|  G|--1---|
D|--6----|  D|--4---|  D|--6---|  D|--8---|  D|--1---|
A|--4----|  A|--4---|  A|--6---|  A|--8---|  A|--3---|
E|-------|  E|--2---|  E|--4---|  E|--6---|  E|------|

[Chorus 3]

[Lead Guitar]
e|------------------------------4------------------------------6--|
B|--6-6-6-6-6-6-6-6-6-6-6-6-4h6---6-6-6-6-6-6-6-6-6-6-6-6--4h6----|
G|----------------------------------------------------------------|
D|----------------------------------------------------------------|
A|----------------------------------------------------------------|
E|----------------------------------------------------------------|

e|-------------------------------4--------------------------------|
B|---6-6-6-6-6-6-6-6-6-6-6-6-4h6---7-7-7-6-6-6-4-4-4-2-2-2-2-4-6--|
G|----------------------------------------------------------------|
D|----------------------------------------------------------------|
A|----------------------------------------------------------------|
E|----------------------------------------------------------------|

e|------------------------------4------------------------------6--|
B|--6-6-6-6-6-6-6-6-6-6-6-6-4h6---6-6-6-6-6-6-6-6-6-6-6-6--4h6----|
G|----------------------------------------------------------------|
D|----------------------------------------------------------------|
A|----------------------------------------------------------------|
E|----------------------------------------------------------------|

e|-------------------------------4---------------------------------|
B|---6-6-6-6-6-6-6-6-6-6-6-6-4h6---7-7-7-6-6-6-4-4-4-2-2-2-2-4-6-2-|
G|-----------------------------------------------------------------|
D|-----------------------------------------------------------------|
A|-----------------------------------------------------------------|
E|-----------------------------------------------------------------|

[Rhythm Guitar]
You've turned my tears of sadness...
    C#         
e|-------|  
B|-------|  
G|--6----|  
D|--6----|  
A|--4----|  
E|-------|  

into such joy and gladness...
     F#      
 e|------| 
 B|------|
 G|--3---|
 D|--4---| 
 A|--4---| 
 E|--2---|

My heart can't keep it in I'm...
     G#     
 e|------|  
 B|------|  
 G|--5---|  
 D|--6---|  
 A|--6---|  
 E|--4---|  

shouting, shouting
     A#m        G#/C
 e|------|  e|--4---|
 B|------|  B|--1---|
 G|------|  G|--1---|
 D|--8---|  D|--1---|
 A|--8---|  A|--3---|
 E|--6---|  E|------|


[Outro]

[Lead Guitar]
e|--4---4-------6---6-------4---4---------------------------|
B|----6---6-4-2---6---2-4-6---6---6-4-2-7-6-4-2-2-4-6-------|
G|----------------------------------------------------------|
D|----------------------------------------------------------|
A|----------------------------------------------------------|
E|----------------------------------------------------------|

e|--4---4-------6---6-------4---4---------------------------|
B|----6---6-4-2---6---2-4-6---6---6-4-2-7-6-4-2-2-4-6-2-----|
G|----------------------------------------------------------|
D|----------------------------------------------------------|
A|----------------------------------------------------------|
E|----------------------------------------------------------|

[Rhythm Guitar]
    C#          F#         G#        A#m        G#/C
e|-------|  e|------|  e|------|  e|------|  e|--4---|
B|-------|  B|------|  B|------|  B|------|  B|--1---|
G|--6----|  G|--3---|  G|--5---|  G|------|  G|--1---|
D|--6----|  D|--4---|  D|--6---|  D|--8---|  D|--1---|
A|--4----|  A|--4---|  A|--6---|  A|--8---|  A|--3---|
E|-------|  E|--2---|  E|--4---|  E|--6---|  E|------|

************************************

| h   Hammer-on

************************************
Suggest correction
Give kudos to tab author, rate the tab!
1 2 3 4 5
comments
print report bad tab
guest
You may want to rate the tab now too:
select rating
Wanna post a correction for this tab? Suggest correction