Oops, an error
Loading. Please wait.

Lion And The Lamb bass

1,711 views 54 this week
no commentswrite comment
1 2 3 4 5
2 more votes to show rating
add to favorites
×
Save as Personal and add changes to this tab that will be seen only by you. Learn more ›
×
You can save this tab as Personal to edit and correct it or add notes. All changes will be seen only by you. Learn more »
launch autoscroll
font size
0
reset
guitar tuner
edit
Autoscroll
slow
fast
+/-
esc
set tempo
stop
Author
Difficulty
Tuning: EADG (Standard)

(Tempo: 90)
(Time Signature: 4/4)

[Intro]


  1 + 2 + 3 + 4 +
G|----------------|----------------|----------------|----------------|
D|----------------|----------------|----------------|----------------|
A|2-2-2-----2-----|2-2-2-----4-----|----------------|----------------|
E|----------------|----------------|0-0-0-----0-----|0-0-0-----0-----|

  
G|----------------|----------------|----------------|----------------|
D|----------------|----------------|----------------|----------2-----|
A|2-2-2-----2-----|2-2-2-----4-----|----------------|----------------|
E|----------------|----------------|0-0-0-----0-----|0-0-0-----------|


[Verse 1]

  1-e-+-a-2-e-+-a-3-e-+-a-4-e-+-a
G|-------------------------------|-------------------------------|
D|-------------------------------|-------------------------------|
A|2-2-2-2-2-2-2-2-2-2-2-2-2-2-2-2|2-2-2-2-2-2-2-2-4-4-4-4-4-4-4-4|
E|-------------------------------|-------------------------------|


 
G|-------------------------------|-------------------------------|
D|2-2-2-2-2-2-2-2-2-2-2-2-2-2^--2|2-2-2-2-2-2-2-2-2-2-2-2-2-2^--2|
A|-------------------------------|-------------------------------|
E|-------------------------------|-------------------------------|

 
G|-------------------------------|-------------------------------|
D|6-6-6-6-6-6-6-6-6-6-6-6-6-6-6-6|6-6-6-6-6-6-6-6-4-4-4-4-4-4-4-4|
A|-------------------------------|-------------------------------|
E|-------------------------------|-------------------------------|


G|-------------------------------|-------------------------------|
D|2-2-2-2-2-2-2-2-2-2-2-2-2-2-2-2|4-4-4-4-4-4-4-4-4-4-4-4-4-4-4-4|
A|-------------------------------|-------------------------------|
E|-------------------------------|-------------------------------|



[Chorus 1]


  1 + 2 + 3 + 4 +
G|----------------|----------------|----------------|----------------|
D|----------------|----------------|----------------|----------------|
A|2---------------|----------------|----------------|----------------|
E|----------------|--------2-------|4---------------|--------2-------|

  
G|----------------|----------------|----------------|----------------|
D|----------------|----------------|----------------|----------------|
A|----------------|----------------|2-------------2-|2---------------|
E|0---------------|2---------------|----------------|--------2-------|


G|----------------|----------------|----------------|----------------|
D|----------------|----------------|----------------|----------------|
A|----------------|----------------|----------------|----------------|
E|4-------------4-|4-------2-------|0-------------0-|2---------------|
  

G|----------------|----------------|
D|2-------------2-|4---------------|
A|----------------|----------------|
E|----------------|----------------|



[Interlude]


  1 + 2 + 3 + 4 +                                    
G|----------------|----------------|----------------|-------------------------------|
D|----------------|----------------|----------------|2---2---2----------2-2-4-4-6-6-|
A|2-2-2-----2-----|2-2-2-----4-----|----------------|-------------------------------|
E|----------------|----------------|0-0-0-----0-----|-------------------------------|



[Verse 2]


  1-e-+-a-2-e-+-a-3-e-+-a-4-e-+-a
G|-------------------------------|-------------------------------|
D|-------------------------------|-------------------------------|
A|2-2-2-2-2-2-2-2-2-2-2-2-2-2-2-2|2-2-2-2-2-2-2-2-4-4-4-4-4-4-4-4|
E|-------------------------------|-------------------------------|

  
G|-------------------------------|--------------------------8-6-4|
D|2-2-2-2-2-2-2-2-2-2-2-4-6-8-6-4|2-2-2-2-2-2-2-2-2-2-2-4-6------|
A|-------------------------------|-------------------------------|
E|-------------------------------|-------------------------------|


G|-------------------------------|-------------------------------|
D|6-6-6-6-6-6-6-6-6-6-6-6-6-6-6-6|6-6-6-6-6-6-6-6-4-4-4-4-4-4-4-4|
A|-------------------------------|-------------------------------|
E|-------------------------------|-------------------------------|


G|-------------------------------|-------------------------------|
D|2-2-2-2-2-2-2-2-2-2-2-2-2-2-2-2|4-4-4-4-4-4-4-4----------------|
A|-------------------------------|-------------------------------|
E|-------------------------------|----------------2-2-2-2-2-2-2-2|



[Chorus 2]


  1 + 2 + 3 + 4 +
G|----------------|----------------|----------------|----------------|
D|----------------|----------------|----------------|---------4-4-1-1|
A|2-2-2-----2-----|2-2-2-----------|----------------|----------------|
E|----------------|--------2--2--4-|4-4-4-----4-----|4-4-4-----------|

  
G|----------------|----------------|----------------|----------------|
D|2-2-2-----2-----|4-4-4-----------|----------------|----------------|
A|----------------|----------------|2-2-2-----2-----|2-2-2-----------|
E|----------------|---------2-2-2-2|----------------|--------2--2--4-|


G|----------------|----------------|----------------|----------------|
D|----------------|---------4-4-1-1|2-2-2-----2-----|4-4-4-----4-----|
A|----------------|----------------|----------------|----------------|
E|4-4-4-----4-----|4-4-4-----------|----------------|----------------|
  

G|----------------|----------------|
D|2-2-2-----2-----|4-4-4-----------|
A|----------------|----------------|
E|----------------|----------2--2--|


[Interlude]


  1 + 2 + 3 + 4 +
G|----------------|----------------|----------------|----------------|
D|----------------|1---------------|2---------------|4---------------|
A|4---------------|----------------|----------------|----------------|
E|----------------|----------------|----------------|----------------|


[Bridge]


  1 + 2 + 3 + 4 +
G|----------------|----------------|----------------|----------------|
D|----------------|1---------------|2---------------|4---------------|
A|4---------------|----------------|----------------|----------------|
E|----------------|----------------|----------------|----------------|

G|----------------|----------------|----------------|----------------|
D|----------------|1---------------|2---------------|4---------------|
A|4---------------|----------------|----------------|----------------|
E|----------------|----------------|----------------|----------------|

G|----------------|----------------|----------------|----------------|
D|----------------|1---------------|2-------------2-|4---------------|
A|4-------------4-|----------------|----------------|----------------|
E|----------------|----------------|----------------|----------------|

G|----------------|----------------|----------------|----------------|
D|----------------|1---1---1---1---|2---2---2---2---|4---------------|
A|4---4---4---4---|----------------|----------------|----------------|
E|----------------|----------------|----------------|----------------|



[Vamp]

  (No Bass)
G|----------------|----------------|
D|----------------|----------------|
A|----------------|----------------|
E|----------------|----------------|



[Chorus 3]


  1 + 2 + 3 + 4 +
G|----------------|----------------|----------------|----------------|
D|----------------|----------------|----------------|---------4-4-1-1|
A|2-2-2-----2-----|2-2-2-----------|----------------|----------------|
E|----------------|--------2--2--4-|4-4-4-----4-----|4-4-4-----------|

  
G|----------------|----------------|----------------|----------------|
D|2-2-2-----2-----|4-4-4-----------|----------------|----------------|
A|----------------|----------------|2-2-2-----2-----|2-2-2-----------|
E|----------------|---------2-2-2-2|----------------|--------2--2--4-|


G|----------------|----------------|----------------|----------------|
D|----------------|---------4-4-1-1|2-2-2-----2-----|4-4-4-----4-----|
A|----------------|----------------|----------------|----------------|
E|4-4-4-----4-----|4-4-4-----------|----------------|----------------|
  

G|----------------|----------------|
D|2-2-2-----2-----|4-4-4-----------|
A|----------------|----------------|
E|----------------|---------2-2-2-2|



[Outro]

  1-e-+-a-2-e-+-a-3-e-+-a-4-e-+-a
G|-------------------------------|-------------------------------|
D|-------------------------------|-------------------------------|
A|2-2-2-2-2-2-2-2-2-2-2-2-2-2-2-2|2-2-2-2-2-2-2-2-2-2-2-2-2-2-2-2|
E|-------------------------------|-------------------------------|


G|-------------------------------|-----------------------------------|
D|-------------------------------|-----------------------------------|
A|2-2-2-2-2-2-2-2-2-2-2-2-2-2-2-2|2-2-2-2-2-2-2-2-2-2-2--/14-14-14-14|
E|-------------------------------|-----------------------------------|

************************************
 /   Slide up
 ^   With meaning 
************************************
Suggest correction
Creating personal tab
Creating personal tab
You can edit any tab online and save it as your Personal.

You can edit, replace or remove any tab part or add personal notes – all changes will be seen only by you.

Personal tabs can be accessed anytime from any device, even offline.
Learn more »
Give kudos to tab author, rate the tab!
1 2 3 4 5
comments
print report bad tab
guest
You may want to rate the tab now too:
select rating
Wanna post a correction for this tab? Suggest correction