Oops, an error
Loading. Please wait.

You Have Won Me Tab

49 views 6 this week
no commentswrite comment
1 2 3 4 5
3 more votes to show rating
add to favorites
launch autoscroll
font size
0
reset
how to read this tab
guitar tuner
Autoscroll
slow
fast
+/-
esc
set tempo
stop
Help us to improve Ultimate-Guitar.com Take our survey!
×
Author
[Intro] 
E|----------------------------------------------------|
B|-1--3-0--3--------0-------1--3-0--3--------3--------|
G|-----------2--0-2---2-0-------------2--------0------|
D|---------------------------------------2/4-----4----|
A|----------------------------------------------------|
E|----------------------------------------------------| 

[Chorus 1]
E|---------------------------------------------|
B|--1-1--0-0-------0-0---1-1--0-0-------0------|
G|---0-0--0-0-2-2---0-0---0-0--0-0-2-2-2-2-0---|
D|-------------0-0------------------0-0--------|
A|---------------------------------------------|
E|---------------------------------------------|
 
E|-------------------------------------|
B|--1-1--0-0-------------1-1--0-0------|
G|---0-0--0-0-2-2-2-2-----0-0--0-0-2---|
D|-------------0-0-0-0-----------------|
A|-------------------------------------|
E|-------------------------------------|

[Chorus 2]
E|---------------------------------------------|
B|--1-1--0-0-------0-0---1-1--0-0-------0------|
G|---0-0--0-0-2-2---0-0---0-0--0-0-2-2-2-2-0---|
D|-------------0-0------------------0-0--------|
A|---------------------------------------------|
E|---------------------------------------------|
 
E|---------------------------------------------|
B|--1-1--0-0------0------1-1--0-0-------0------|
G|---0-0--0-0-2-2--2-0----0-0--0-0-2-2-2-2-0---|
D|-------------0-0------------------0-0--------|
A|---------------------------------------------|
E|---------------------------------------------|

[Chorus 1]
E|---------------------------------------------|
B|--1-1--0-0-------0-0---1-1--0-0-------0------|
G|---0-0--0-0-2-2---0-0---0-0--0-0-2-2-2-2-0---|
D|-------------0-0------------------0-0--------|
A|---------------------------------------------|
E|---------------------------------------------|
 
E|-------------------------------------|
B|--1-1--0-0-------------1-1--0-0------|
G|---0-0--0-0-2-2-2-2-----0-0--0-0-2---|
D|-------------0-0-0-0-----------------|
A|-------------------------------------|
E|-------------------------------------|

[Instrumental] 
E|--------------------------------------------------------|
B|-1--3-0--3--------0-------1--3-0--3--------3-----3/15---|
G|-----------2--0-2---2-0-------------2--------0----------|
D|---------------------------------------2/4-----4--------|
A|--------------------------------------------------------|
E|--------------------------------------------------------| 
 
E|----------------------------------|
B|-15--17-14-17-----------14--------|
G|--------------16--14-16----16-14--|
D|----------------------------------|
A|----------------------------------| 
E|----------------------------------|
 
E|---------------------16-16b-12----|
B|-15--17-14-17---------------------|
G|--------------16--14--------------|
D|----------------------------------|
A|----------------------------------|
E|----------------------------------|

Just play the chords in the verses
@ Capo 2
F#m = Em
D = C
A = G
E = D 
Suggest correction
Give kudos to tab author, rate the tab!
1 2 3 4 5
comments
print report bad tab
guest
You may want to rate the tab now too:
select rating
Wanna post a correction for this tab? Suggest correction