Oops, an error
Loading. Please wait.

You Make Me Brave tab

4,345 views 30 this week
4 commentsread comments
1 2 3 4 5
x 5
add to favorites
×
Save as Personal and add changes to this tab that will be seen only by you. Learn more ›
×
You can save this tab as Personal to edit and correct it or add notes. All changes will be seen only by you. Learn more »
launch autoscroll
font size
0
reset
how to read this tab
guitar tuner
edit
Autoscroll
slow
fast
+/-
esc
set tempo
stop
-------------------------------------------------------------------------------
                             YOU MAKE ME BRAVE - Bethel Music
-------------------------------------------------------------------------------
Album: You Make Me Brave
Tabbed by: andrewbishop

Tuning: Standard


This songs contains the parts below and of course the chords, I hope to help you through
this melodic parts, I´m sure you can do the chords by yourself, you can find them on the
official bethel website.


Intro & Chorus:
e|------15-13--------15-13---11-----18---------------------------------------------|
B|--11----------11----------------16-------------------------------------------|
G|----12----------12--------------------------------------------------------|
D|-----------------------------------------------------------------------------|
A|-----------------------------------------------------------------------------|
E|-----------------------------------------------------------------------------|

Chorus:
e|---------------------------------------------------------------------------|
B|---------------------------------------------------------------------------|
G|--12(x16)---15(x16)---13(x8)---12(x16)---10(x8)----reapeat-----------------|
D|---------------------------------------------------------------------------|
A|---------------------------------------------------------------------------|
E|---------------------------------------------------------------------------|

Bridge:
e|------15-13------15-13------15-13-------18--11-----------------------------|
B|--11---------11---------11---------11-----------------------------------|
G|----12---------12---------12---------12-------------------------------------|
D|---------------------------------------------------------------------------|
A|---------------------------------------------------------------------------|
E|---------------------------------------------------------------------------|


For this song I´m using:
Walrus Audio - Deep Six
Visual Sound VSXO
Strymon Timeline

god bless





            
            
Suggest correction
Creating personal tab
Creating personal tab
You can edit any tab online and save it as your Personal.

You can edit, replace or remove any tab part or add personal notes – all changes will be seen only by you.

Personal tabs can be accessed anytime from any device, even offline.
Learn more »
comments
print report bad tab
4 comments total. Showing first comments.
+1 reply
Enddate 105 Feb 03, 2016 07:29 AM

very well done!

+4 reply
xxmrblonde 263 Apr 11, 2016 10:45 AM

Intro, chorus, and bridge are completely wrong. It almost looks upside down based on what should be played. Play the part and it will be obvious.

0 reply
xxmrblonde 263 Apr 11, 2016 10:45 AM

Intro, chorus, and bridge are completely wrong. It almost looks upside down based on what should be played. Play the part and it will be obvious.

guest
You may want to rate the tab now too:
select rating
Wanna post a correction for this tab? Suggest correction