Oops, an error
Loading. Please wait.

Dear Paige Tab

10 views 3 this week
no commentswrite comment
1 2 3 4 5
2 more votes to show rating
add to favorites
launch autoscroll
font size
0
reset
how to read this tab
guitar tuner
Autoscroll
slow
fast
+/-
esc
set tempo
stop
Help us to improve Ultimate-Guitar.com Take our survey!
×
Author
Difficulty
Tuning
intermediate
D# G# C# F# A# D#
About this tab version
Its almost 100% correct and have the solo. Was this info helpful? Yes No
[Intro]

Guitar 1:
Start strumming this chord:
D#|---------------------------------------------------------------------------|
A#|---------------------------------------------------------------------------|
F#|---13----------------------------------------------------------------------|
C#|---------------------------------------------------------------------------|
G#|---11----------------------------------------------------------------------|
D#|---------------------------------------------------------------------------|

Guitar 2:
Start strumming this chord:
D#|---------------------------------------------------------------------------|
A#|---------------------------------------------------------------------------|
F#|----9----------------------------------------------------------------------|
C#|---------------------------------------------------------------------------|
G#|----7----------------------------------------------------------------------|
D#|---------------------------------------------------------------------------|

[Verse]

Chords:
D#|---------------------------------------------------------------------------|
A#|---------------------------------------------------------------------------|
F#|----9----8----6----4----2---------------4----------------------------------|
C#|----9----9----6----4----2----6----4-----4----------------------------------|
G#|----7----6----4----2----0----7----4-----2----------------------------------|
D#|-----------------------------4----2----------------------------------------|

Part 2:

Guitar 1:
D#|--4p0---0-0---4h5p4p0--2h4p2p0--4p0---0-0---5p4p0-7/9\7--------------------|
A#|------0-----0-----------------------0-----0--------------------------------|
F#|---------------------------------------------------------------------------|
C#|---------------------------------------------------------------------------| x2
G#|---------------------------------------------------------------------------|
D#|---------------------------------------------------------------------------|
(The second time instead of: 7/9\7 is 7/9\12, and other guitar does: 4/5\12)


Guitar 2:
Chords:
D#|---------------------------------------------------------------------------|
A#|---------------------------------------------------------------------------|
F#|---------------------------------------------------------------------------|
C#|--2---4----6-------6-----7-------------------------------------------------|
G#|--2---4----6- or---7-----7-------------------------------------------------|
D#|--0---2----4-------4-----5-------------------------------------------------|

[Chorus]

Guitar 1:
Chords:
D#|---------------------------------------------------------------------------|
A#|-----------------------------17--------------------------------------------|
F#|----13--14--16--14--13--16-------16--18--16--14--13--9---------------------|
C#|-----------------------------14--------------------------------------------|
G#|----11--12--14--12--11--14-------14--16--14--12--11--7---------------------|
D#|---------------------------------------------------------------------------|

Guitar 2:
Chords:
D#|---------------------------------------------------------------------------|
A#|---------------------------------------------------------------------------|
F#|----9----------9--8--6--4--2--4---------------------------------------------|
C#|----9--7--9----9--9--6--4--2--4----------------------------------------------|
G#|----7--7--9----7--6--4--2--0--2----------------------------------------------|
D#|-------5--7------------------------------------------------------------------|


[Bridge]

D#|------------------------------x--x-------------------------------------------|
A#|------------------------------x--x-------------------------------------------|
F#|------------------------------x--x-------------------------------------------|
C#|---2--------------------------x--x-------------------------------------------|
G#|---2--------------------------x--x-------------------------------------------|
D#|---0-----12\\\\\\0------------x--x-------------------------------------------|

Guitar 1:
D#|-----------0h2p0---------0h2h4---------------------------------------------|
A#|--0-0-0-0--------0-0-0-0---------------------------------------------------|
F#|---------------------------------------------------------------------------|
C#|---------------------------------------------------------------------------|x4
G#|---------------------------------------------------------------------------|
D#|---------------------------------------------------------------------------|
     PMPMPMPM       PMPMPMPM
Guitar 2:
D#|---------------------------------------------------------------------------|
A#|--0-0-0-5-0--------0-0-0-0h2h5-------------------------------------------------|
F#|---------------------------------------------------------------------------|
C#|---------------------------------------------------------------------------|x4
G#|---------------------------------------------------------------------------|
D#|---------------------------------------------------------------------------|
     PMPMPMPM         PMPMPM

Guitar 1:
D#|----4p0---2h4p2p0----------------------------------------------------------|
A#|--------0------------------------------------------------------------------|
F#|---------------------------------------------------------------------------|
C#|---------------------------------------------------------------------------|x8
G#|---------------------------------------------------------------------------|
D#|---------------------------------------------------------------------------|

Guitar 2:
D#|----7p0---5h7p5p4----------------------------------------------------------|
A#|--------0------------------------------------------------------------------|
F#|---------------------------------------------------------------------------|
C#|---------------------------------------------------------------------------|x8
G#|---------------------------------------------------------------------------|
D#|---------------------------------------------------------------------------|

Both Guitars:

D#|----------------------------|
A#|----------------------------|
F#|----------------------------|
C#|---2------2-----------------|
G#|---2-x3---2---x5------------|
D#|---0------0-----------------|
             PM


[Solo]
Guitar 1:
D#|---------------------------------------------------------------------------|
A#|-----9-11h12-12-10p9-10\------9h10-10-9p7-9--9\5-5-5/7-7/9-7\5-5-4-4h5-4-0-|
F#|--/9----------------------11-----------------------------------------------|
C#|------------------------9--------------------------------------------------|
G#|---------------------------------------------------------------------------|
D#|---------------------------------------------------------------------------|          
                                                                                    x2  
D#|------------------7-----------7-----------7------------------------------|    
A#|--0 7/9-7-4-5-0-5---5-0-5-0-5---5-0-5-0-5---5-0-5-0-5-5/10-9-7-5---------|
F#|------------------------11-----------------------------------------------|
C#|------------------------9------------------------------------------------|
G#|-------------------------------------------------------------------------|
D#|-------------------------------------------------------------------------|
(The second time other guitar does this):

D#|---------------------------------------------------------------------------|
A#|-------8h9-9-7p5-7--------------------------5-9-10-12-10-9-7-9-7-4-5-------|
F#|-----9----------------9-8-9/11-11-9h8-9-9\4--------------------------------|
C#|---9-----------------------------------------------------------------------|
G#|---------------------------------------------------------------------------|
D#|---------------------------------------------------------------------------|


Guuitar 2:

Chords:
D#|---------------------------------------------------------------------------|
A#|---------------------------------------------------------------------------|
F#|----9----------2----4----9----8----6----4----2----4----6----4----2----4----| 
C#|----9------2---2----4----9----9----6----4----2----4----6----4----2----4----|x2
G#|----7--or--2---0----2----7----6----4----2----0----2----4----2----0----2----|
D#|----0------0---------------------------------------------------------------|
(The second time there are some palm mutes)

[Outro]
(In the outro a guitar does something like this):
D#|----------7--------------------------------------------|
A#|------------9------------------------------------------|
F#|------9-------9--------9--9h11-9-----------------------| 
C#|----7---7-------9--11----------9-----------------------|
G#|-------------------------------7-----------------------|
D#|-------------------------------------------------------|

(You can end playing this notes)
D#|---------------------|
A#|---------------------|
F#|--6--------4-------2-| 
C#|---------------------|x2
G#|---------------------|
D#|---------------------|


And thats all. ;)

************************************

| x   Dead note
| g   Grace note
| (n) Ghost note
| h   Hammer-on
| p   Pull-off
| r   Release
| >   Accented note
| t   Tapping
| b   Bend
| br  Bend release
| pb  Pre-bend
| pbr Pre-bend release
| /   Slide up
| \   Slide down
| ~   Vibrato
| s   Slap
| P   Pop
| PM  Palm mute
| TR  Trill
| N   Tremolo

************************************
Suggest correction
Give kudos to tab author, rate the tab!
1 2 3 4 5
comments
print report bad tab
guest
You may want to rate the tab now too:
select rating
Wanna post a correction for this tab? Suggest correction