Oops, an error
Loading. Please wait.

Suicide Island tab

106 views 1 this week
no commentswrite comment
1 2 3 4 5
2 more votes to show rating
add to favorites
×
Save as Personal and add changes to this tab that will be seen only by you. Learn more ›
×
You can save this tab as Personal to edit and correct it or add notes. All changes will be seen only by you. Learn more »
launch autoscroll
font size
0
reset
how to read this tab
guitar tuner
edit
Autoscroll
slow
fast
+/-
esc
set tempo
stop
-------------------------------------------------------------------------------
                             SUICIDE ISLAND - Better Off
-------------------------------------------------------------------------------
Tabbed by: Mike Wolfe
E-mail:

Tuning: Half-Step Down (Eb Ab Db Gb Bb eb)

Guitar 1:
                x3
e|-----0-0-0-0-----0-0-0-0-0-0-0-0-|-----0-0-0-0-----0-0-0-0-0-0-0-0-|
B|-----5-5-5-5-----4-4-4-7-7-9-9-9-|-----5-5-5-5-----4-4-4-4-4-4-4-4-|
G|---------------------------------|---------------------------------|
D|---------------------------------|---------------------------------|
A|---------------------------------|---------------------------------|
E|-0-0---------0-0-----------------|-0-0---------0-0-----------------|
PM . .         . .                   . .         . .
e|---------------------------------------------------------------------------|
B|---------------------------------------------------------------------------|
G|-------------------------------------------------12-12-12-12-12-11---------|
D|-----------------6-6-6-6-9-9-9-9-5-5-5-5-5-5-5-5-12-12-12-12-12-11---------|  x2
A|-2-2-2-2-6-6-6-6-4-4-4-4-7-7-7-7-3-3-3-3-3-3-3-3-10-10-10-10-10-9----------|
E|-0-0-0-0-4-4-4-4-----------------------------------------------------------|

e|---------------------------------------------------------------------------|
B|---------------------------------------------------------------------------|
G|---------------------------------------------------------------------------|
D|---------------------------------------------------------------------------|  x2
A|-7-7-7-4-4-7-7-2-2-2-2-2-2-2-2-2-7-7-7-4-4-7-7-2-2-2-2-2-6/7-6/7-----------|
E|---------------0-0-0-0-0-0-0-0-0---------------0-0-0-0-0-4/5-4/5-----------|
PM . . . . . . . . . . . . . . . . . . . . . . . . . . . .
e|---------------------------------------------------------------------------|
B|---------------------------------------------------------------------------|
G|------------------6-6-6-6-6-6-6------------------9-9-9-9-9-9-9-------------|
D|---------------------------------------------------------------------------|
A|-2-2-2-2-2-2-2-2----------------6-6-6-6-6-6-6-6----------------------------|
E|-0-0-0-0-0-0-0-0----------------4-4-4-4-4-4-4-4----------------------------|
PM . . . . . . . .                . . . . . . . .
e|---------------------------------------------------------------------------|
B|---------------------------------------------------------------------------|
G|------------------6-6-6-6-6-6-6------------------9-9-9-9-9-----------------|
D|---------------------------------------------------------------------------|
A|-2-2-2-2-2-2-2-2----------------6-6-6-6-6-6-6-6----------------------------|
E|-0-0-0-0-0-0-0-0----------------4-4-4-4-4-4-4-4----------------------------|
PM . . . . . . . .                . . . . . . . .
e|-------------------------0-0-0-0-------0-----0-4----------------------|
B|-5---5---5---5---5---5---5-4-2-0---0-------0-----5---5----------------|
G|---4---4---4---4---4---4---------5---5---6---------4---4-----------12-|
D|----------------------------------------------------------------------|
A|---------------------------------------------------------2-2-2-2-2-10-|
E|---------------------------------------------------------0-0-0-0-0----|

e|-------------------------0-0-0-0-------0-----0-4-|
B|-5---5---5---5---5---5---5-4-2-0---0-------0-----|
G|---4---4---4---4---4---4---------5---5---6-------|
D|-------------------------------------------------|
A|-------------------------------------------------|
E|-------------------------------------------------|

e|-12-12-12-12-11-11-11-11-9-9-9-9-7-7-7-7-8-8-8-8-8-------------------------|
B|---------------------------------------------------8-8-8-7b-7-7-7-7-4-4b-4-|
G|---------------------------------------------------------------------------|
D|---------------------------------------------------------------------------|
A|---------------------------------------------------------------------------|
E|---------------------------------------------------------------------------|

e|---------------------------------------------------------------------------|
B|-------------------------12/10-9-------------------------------------------|
G|---------------------------------------------------------------------------|
D|---------------------------------------------------------------------------|
A|-------------6/7-6/7---------------------6/7-6/7---------------------------|
E|-------------4/5-4/5---------------------4/5-4/5---------------------------|

e|---------------------------------------------------------------------------|
B|---------------------------------------------------------------------------|
G|------------------6-6-6-6-6-6-6------------------9-9-9-9-9-9-9-------------|
D|---------------------------------------------------------------------------|
A|-2-2-2-2-2-2-2-2----------------6-6-6-6-6-6-6-6----------------------------|
E|-0-0-0-0-0-0-0-0----------------4-4-4-4-4-4-4-4----------------------------|
PM . . . . . . . .                . . . . . . . .
e|---------------------------------------------------------------------------|
B|---------------------------------------------------------------------------|
G|------------------6-6-6-6-6-6-6------------------9-9-9-9-9-----------------|
D|---------------------------------------------------------------------------|
A|-2-2-2-2-2-2-2-2----------------6-6-6-6-6-6-6-6----------------------------|
E|-0-0-0-0-0-0-0-0----------------4-4-4-4-4-4-4-4----------------------------|
PM . . . . . . . .                . . . . . . . .
e|-------------------------0-0-0-0-------0-----0-4----------------------|
B|-5---5---5---5---5---5---5-4-2-0---0-------0-----5---5----------------|
G|---4---4---4---4---4---4---------5---5---6---------4---4-----------12-|
D|----------------------------------------------------------------------|
A|---------------------------------------------------------2-2-2-2-2-10-|
E|---------------------------------------------------------0-0-0-0-0----|

e|-------------------------0-0-0-0-------0-----0-4-|-------------|
B|-5---5---5---5---5---5---5-4-2-0---0-------0-----|-------------|
G|---4---4---4---4---4---4---------5---5---6-------|-9--9--9--9--|
D|-------------------------------------------------|-9--9--9--9--|
A|-------------------------------------------------|-7--7--7--7--|
E|-------------------------------------------------|-0--0--0--0--|
                x3
e|-----0-0-0-0-----0-0-0-0-0-0-0-0-|-----0-0-0-0-----0-0-0-0-0-0-0-0-|
B|-----5-5-5-5-----4-4-4-7-7-9-9-9-|-----5-5-5-5-----4-4-4-4-4-4-4-4-|
G|---------------------------------|---------------------------------|
D|---------------------------------|---------------------------------|
A|---------------------------------|---------------------------------|
E|-0-0---------0-0-----------------|-0-0---------0-0-----------------|
PM . .         . .                   . .         . .

e|------------------------------|-----------------|
B|-9---------9-9-9-12-----------|-----------------|
G|-9---------9-9-9-9------------|-----------------|
D|-9---------9-9-9-9------------|-6-6-6-6-7-7-7-7-|
A|-7---------7-7-7-7------------|-6-6-6-6-7-7-7-7-|
E|-0---------0-0-0-0------------|-4-4-4-4-5-5-5-5-|

e|-------------------------0-0-0-0-------0-----0-4-|
B|-5---5---5---5---5---5---5-4-2-0---0-------0-----|
G|---4---4---4---4---4---4---------5---5---6-------|
D|-------------------------------------------------|  x3
A|-------------------------------------------------|
E|-------------------------------------------------|

e|---------------------------------------------------------------------------|
B|---------------------------------------------------------------------------|
G|-------------------------------------------------12-12-12-12-12-11---------|
D|-----------------6-6-6-6-9-9-9-9-5-5-5-5-5-5-5-5-12-12-12-12-12-11---------| 
A|-2-2-2-2-6-6-6-6-4-4-4-4-7-7-7-7-3-3-3-3-3-3-3-3-10-10-10-10-10-9----------|
E|-0-0-0-0-4-4-4-4-----------------------------------------------------------|

Guitar 2:
                 x3
e|-----------------------------------|------------------------------|
B|-----------------------------------|------------------------------|
G|-----------------------------------|------------------------------|
D|------3-3-3-3------3-3-3-3-3-3-3-3-|------3-3-3-3-----------------|
A|-2-2--3-3-3-3-2-2--3-3-3-3-3-3-3-3-|-2-2--3-3-3-3-2-2-------------|
E|-0-0--3-3-3-3-0-0--3-3-3-3-3-3-3-3-|-0-0--3-3-3-3-0-0-/pickslide\-|
PM . .  + + + + . .  + + + + + + + +   . .  + + + + . .
e|---------------------------------------------------------------------------|
B|---------------------------------------------------------------------------|
G|-------------------------------------------------12-12-12-12-12-11---------|
D|-----------------6-6-6-6-9-9-9-9-5-5-5-5-5-5-5-5-12-12-12-12-12-11---------|  x2
A|-2-2-2-2-6-6-6-6-4-4-4-4-7-7-7-7-3-3-3-3-3-3-3-3-10-10-10-10-10-9----------|
E|-0-0-0-0-4-4-4-4-----------------------------------------------------------|

e|---------------------------------------------------------------------------|
B|---------------------------------------------------------------------------|
G|---------------------------------------------------------------------------|
D|---------------------------------------------------------------------------|  x2
A|-7-7-7-4-4-7-7-2-2-2-2-2-2-2-2-2-7-7-7-4-4-7-7-2-2-2-2-2-6/7-6/7-----------|
E|---------------0-0-0-0-0-0-0-0-0---------------0-0-0-0-0-4/5-4/5-----------|
PM . . . . . . . . . . . . . . . . . . . . . . . . . . . .
e|---------------------------------------------------------------------------|
B|---------------------------------------------------------------------------|
G|------------------6-6-6-6-6-6-6------------------9-9-9-9-9-9-9-------------|
D|------------------6-6-6-6-6-6-6------------------9-9-9-9-9-9-9-------------|
A|-2-2-2-2-2-2-2-2--4-4-4-4-4-4-4-6-6-6-6-6-6-6-6--7-7-7-7-7-7-7-------------|
E|-0-0-0-0-0-0-0-0----------------4-4-4-4-4-4-4-4----------------------------|
PM . . . . . . . .                . . . . . . . .
e|---------------------------------------------------------------------------|
B|---------------------------------------------------------------------------|
G|------------------6-6-6-6-6-6-6------------------9-9-9-9-9-----------------|
D|------------------6-6-6-6-6-6-6------------------9-9-9-9-9-----------------|
A|-2-2-2-2-2-2-2-2--4-4-4-4-4-4-4-6-6-6-6-6-6-6-6--7-7-7-7-7-----------------|
E|-0-0-0-0-0-0-0-0----------------4-4-4-4-4-4-4-4----------------------------|
PM . . . . . . . .                . . . . . . . .

e|------------------------------------------------------------------|
B|------------------------------------------------------------------|
G|-----------------6-6-6-6-6-6-6-6-------------------------------12-|
D|-2-2-2-2-2-2-2-2-6-6-6-6-6-6-6-6-6-6-6-6-7-7-7-7-2-2-2-2-2-222----|
A|-2-2-2-2-2-2-2-2-4-4-4-4-4-4-4-4-6-6-6-6-7-7-7-7-2-2-2-2-2-222-10-|
E|-0-0-0-0-0-0-0-0-----------------4-4-4-4-5-5-5-5-0-0-0-0-0-000----|
PM                                                           ...
e|-------------------------------------------------|
B|-------------------------------------------------|
G|-----------------6-6-6-6-6-6-6-6-----------------|
D|-2-2-2-2-2-2-2-2-6-6-6-6-6-6-6-6-6-6-6-6-7-7-7-7-|
A|-2-2-2-2-2-2-2-2-4-4-4-4-4-4-4-4-6-6-6-6-7-7-7-7-|
E|-0-0-0-0-0-0-0-0-----------------4-4-4-4-5-5-5-5-|

e|---------------------------------------------------------------------------|
B|---------------------------------------------------------------------------|
G|-------------------------------------------------12-12-12-12-12-11---------|
D|-----------------6-6-6-6-9-9-9-9-5-5-5-5-5-5-5-5-12-12-12-12-12-11---------|
A|-2-2-2-2-6-6-6-6-4-4-4-4-7-7-7-7-3-3-3-3-3-3-3-3-10-10-10-10-10-9----------|
E|-0-0-0-0-4-4-4-4-----------------------------------------------------------|

e|---------------------------------------------------------------------------|
B|-------------------------12/10-9-------------------------------------------|
G|---------------------------------------------------------------------------|
D|---------------------------------------------------------------------------|
A|-------------6/7-6/7---------------------6/7-6/7---------------------------|
E|-------------4/5-4/5---------------------4/5-4/5---------------------------|

e|---------------------------------------------------------------------------|
B|---------------------------------------------------------------------------|
G|------------------6-6-6-6-6-6-6------------------9-9-9-9-9-9-9-------------|
D|------------------6-6-6-6-6-6-6------------------9-9-9-9-9-9-9-------------|
A|-2-2-2-2-2-2-2-2--4-4-4-4-4-4-4-6-6-6-6-6-6-6-6--7-7-7-7-7-7-7-------------|
E|-0-0-0-0-0-0-0-0----------------4-4-4-4-4-4-4-4----------------------------|
PM . . . . . . . .                . . . . . . . .
e|---------------------------------------------------------------------------|
B|---------------------------------------------------------------------------|
G|------------------6-6-6-6-6-6-6------------------9-9-9-9-9-----------------|
D|------------------6-6-6-6-6-6-6------------------9-9-9-9-9-----------------|
A|-2-2-2-2-2-2-2-2--4-4-4-4-4-4-4-6-6-6-6-6-6-6-6--7-7-7-7-7-----------------|
E|-0-0-0-0-0-0-0-0----------------4-4-4-4-4-4-4-4----------------------------|
PM . . . . . . . .                . . . . . . . .

e|------------------------------------------------------------------|
B|------------------------------------------------------------------|
G|-----------------6-6-6-6-6-6-6-6-------------------------------12-|
D|-2-2-2-2-2-2-2-2-6-6-6-6-6-6-6-6-6-6-6-6-7-7-7-7-2-2-2-2-2-222----|
A|-2-2-2-2-2-2-2-2-4-4-4-4-4-4-4-4-6-6-6-6-7-7-7-7-2-2-2-2-2-222-10-|
E|-0-0-0-0-0-0-0-0-----------------4-4-4-4-5-5-5-5-0-0-0-0-0-000----|
PM                                                           ...
e|-------------------------------------------------|-------------|
B|-------------------------------------------------|-------------|
G|-----------------6-6-6-6-6-6-6-6-----------------|-------------|
D|-2-2-2-2-2-2-2-2-6-6-6-6-6-6-6-6-6-6-6-6-7-7-7-7-|-2--2--2--2--|
A|-2-2-2-2-2-2-2-2-4-4-4-4-4-4-4-4-6-6-6-6-7-7-7-7-|-2--2--2--2--|
E|-0-0-0-0-0-0-0-0-----------------4-4-4-4-5-5-5-5-|-0--0--0--0--|

                 x3
e|-----------------------------------|------------------------------|
B|-----------------------------------|------------------------------|
G|-----------------------------------|------------------------------|
D|------3-3-3-3------3-3-3-3-3-3-3-3-|------3-3-3-3-----------------|
A|-2-2--3-3-3-3-2-2--3-3-3-3-3-3-3-3-|-2-2--3-3-3-3-2-2-2-2-2-2-2-2-|
E|-0-0--3-3-3-3-0-0--3-3-3-3-3-3-3-3-|-0-0--3-3-3-3-0-0-0-0-0-0-0-0-|
PM . .  + + + + . .  + + + + + + + +   . .  + + + + . .

e|------------------|-----------------|
B|------------------|-----------------|
G|------------------|-----------------|
D|----1st Guitar----|-6-6-6-6-7-7-7-7-|
A|-------only-------|-6-6-6-6-7-7-7-7-|
E|------------------|-4-4-4-4-5-5-5-5-|

e|-------------------------------------------------|
B|-------------------------------------------------|
G|-----------------6-6-6-6-6-6-6-6-----------------|
D|-2-2-2-2-2-2-2-2-6-6-6-6-6-6-6-6-6-6-6-6-7-7-7-7-|  x3
A|-2-2-2-2-2-2-2-2-4-4-4-4-4-4-4-4-6-6-6-6-7-7-7-7-|
E|-0-0-0-0-0-0-0-0-----------------4-4-4-4-5-5-5-5-|

e|---------------------------------------------------------------------------|
B|---------------------------------------------------------------------------|
G|-------------------------------------------------12-12-12-12-12-11---------|
D|-----------------6-6-6-6-9-9-9-9-5-5-5-5-5-5-5-5-12-12-12-12-12-11---------|
A|-2-2-2-2-6-6-6-6-4-4-4-4-7-7-7-7-3-3-3-3-3-3-3-3-10-10-10-10-10-9----------|
E|-0-0-0-0-4-4-4-4-----------------------------------------------------------|

************************************

| /   slide up
| \   slide down
| h   hammer-on
| p   pull-off
| ~   vibrato
| +   harmonic
| x   Mute note
| b   Bend
| pb  Pre-bend
| br  Bend release
| pbr Pre-bend release
| brb Bend release bend

************************************

            
            
Suggest correction
Creating personal tab
Creating personal tab
You can edit any tab online and save it as your Personal.

You can edit, replace or remove any tab part or add personal notes – all changes will be seen only by you.

Personal tabs can be accessed anytime from any device, even offline.
Learn more »
Give kudos to tab author, rate the tab!
1 2 3 4 5
comments
print report bad tab
guest
You may want to rate the tab now too:
select rating
Wanna post a correction for this tab? Suggest correction