Oops, an error
Loading. Please wait.

A Lifetime Tab

8,110 views 1 this week
3 commentsread comments
1 2 3 4 5
accurate
x 6
add to favorites
launch autoscroll
font size
0
reset
how to read this tab
guitar tuner
Autoscroll
slow
fast
+/-
esc
set tempo
stop
Help us to improve Ultimate-Guitar.com Take our survey!
×
Author
----------------------------------------------------------------------------
                             A Lifetime - Better Than Ezra
----------------------------------------------------------------------------
Tabbed by: R3doubt
Email:ResidentAdolescent@Hotmail.com

Tuning: Standard (EADGBe)

Verse and Chorus
       F  C  G*--Keep strumming the G chord
e|-----1--0— 3-------------------------------------------------------------|
B|-----1--1—-0---1-0-------------------------------------------------------|
G|-----2--0--0-------2-0---------------------------------------------------|
D|-----3--2--0-------------------------------------------------------------|
A|--------3--2------(0)----------------------------------------------------|
E|-----------3-------------------------------------------------------------|
*Play e string with your pinky, E string with your ring finger, and the A string with
the middle finger.  This allows you to use your index finger to play on the B string.
Use your middle finger to hit the G string (hence the open A string).

F
Allie woke up
C
Eight am
G*
Graduation day...

Pre-Chorus:
    Dm       F   G
e|---1-------1---3-----|
B|---3-------1---3-----|
G|---2-------2---0-----|
D|---0--0-2--3---0-----|
A|---------------2-----|
E|---------------3-----|

Dm
And you were standing on the hood of your car

F                             G  
Singing out loud when the sun up


Chorus:
      F
And I know it wasn't right
C              G*
But it felt so good...

Dm                      F
Three and half minutes
G
It felt like a lifetime

Repeat Verse

Play these chords barred:
E   D   E  D    E# E   F  G
Are you sitting in the light

G               E     D    E D
Or combing your hair again

E#  E          F   G
And talking in rhymes

E   D   E  D    E# E   F  G
Are you sitting in the light

Repeat Verse/Chorus as needed etc...
Suggest correction
comments
print report bad tab
3 comments total.
0 reply
bjm91191 80 wrote on March 31 2007, 12:14 pm

E sharp?

0 reply
R3doubt 50 wrote on March 31 2007, 12:28 pm

This song transciption is based off the album version from Closer.

0 reply
bonus_viii 71 wrote on April 20 2007, 12:01 am

dude, E#?? maybe your talking bout "F"

guest
You may want to rate the tab now too:
select rating
Please do not post tabs as comments. Select "correction" instead!