Oops, an error
Loading. Please wait.

Absolutely Still Bass Tab

369 views 1 this week
no commentswrite comment
1 2 3 4 5
please rate
add to favorites
launch autoscroll
font size
0
reset
guitar tuner
Autoscroll
slow
fast
+/-
esc
set tempo
stop
Help us to improve Ultimate-Guitar.com Take our survey!
×
Author
Absolutely Sill by Better Than Ezra

Tuning: standard

This songs easy and part of a great song

bass isn't in for the intro and 1st verse

come in a 0:41/pre-chorus:
------------------------------------------------------------------|
---------------------------------------------------------5--4-2---|
-2-2-2-2-2-2-2-2-----------------5-5-5-5-5-5-5-5------------------|
-----------------3-3-3-3-3-3-3-3-----------------3-3-3-3----------|

chorus: x2
----------------------------------------|
-------------------------------5--4-2---|
-5--x16-----------2--x16----------------|
---------5--x16-----------3--x8---------|

before vocals come in:
------------|
------------|
5--5-55-5---|
------------|

Verse 2: x2
---------------------------------------------------------------|
---------------------------------------------------------------|
-5-555-5-5-55-5----------------2-222-2-2-22-2------------------|
----------------5-555-5-5-55-5----------------3-333-3-3-33-3---|

pre-chorus

chorus x2

bridge:
--------------------------------------------------------------------|
---------5-5-5-5---------7-7-7-7---------5-5-5-5---------7-7-7-7----|
-5-5-5-5---------5-5-5-5---------5-5-5-5---------5-5-5-5------------|
--------------------------------------------------------------------|

pre-chorus

chorus to finish to song

that's it!
please leave any comments or ratings.
Suggest correction
Give kudos to tab author, rate the tab!
1 2 3 4 5
comments
print report bad tab
guest
You may want to rate the tab now too:
select rating
Please do not post tabs as comments. Select "correction" instead!