Oops, an error
Loading. Please wait.

Absolutely Still Tab

4,658 views 12 this week
1 commentread comment
1 2 3 4 5
1 last vote to show rating
add to favorites
launch autoscroll
font size
0
reset
how to read this tab
guitar tuner
Autoscroll
slow
fast
+/-
esc
set tempo
stop
Help us to improve Ultimate-Guitar.com Take our survey!
×
Author
-------------------------------------------------------------------------------
                             Absolutely Still – Better Than Ezra
-------------------------------------------------------------------------------
Tabbed by:blakem1289

I heard this new Better Than Ezra song and noticed that no one had tabbed it out yet, so 
decided that I would give it a try. This is my first tab so it’s not too great, but I 
it works well enough. Feel free to make any comments or suggestions. Thanks.
Tuning: Standard

Chords used:
D5:(xx023x)
D/F#:(2x023x)
A:(x0222x)
Bm:(x24432)
G5:(3x003x)
E7sus4(00223x)

Intro/Verse
e|-------------------------------------------------------------------|
B|-2---2---3---3---2---2---3---3---2---2---3---3---2---2---3---3-----|
G|-------------------------------------------------------------------|
D|---0---0---0---0---0---0---0---------------------------------------|
A|-------------------------------0---0---0---0---0---0---0---0---2---|
E|-------------------------------------------------------------------|

e|-------------------------------------------------------------------|
B|-2---2---3---3---2---2---3---3---2---2---3---3---2---2---3---3-----|
G|-------------------------------------------------------------------|
D|---0---0---0---0---0---0---0---------------------------------------|
A|-------------------------------------------------------------------|
E|-------------------------------3---3---3---3---3---3---3---3-------|

Verse 1:
This grey room,
This bunker,
The air is humming
us to sleep

While outside,
the city hurries;
the endless worries
are out of reach

Pre-Chorus:
  Bm                               G5
Promise me we'll never leave this room,
  Bm                                    G5 D/F# E7sus4
a million years from now would be too soon.

Chorus:
  D5
The world is spinning turning day to night
  A
and my thoughts are running at the speed of light
 Bm                                      G5
Got an empty feeling that I never want to fill
 G5 D/F# E7sus4
absolutely still

 D5
I waited longer 'cause I needed proof
 A
that every door I shut is leading me to you
 Bm                                               G5
and there's a nervous feeling that i never want to kill
 G5 D/F# E7sus4
absolutely still

Verse 2:
We were running
from the same noise,
We were stuck in
the same pursuit

Now the door's locked
and I find that
the dizzy madness
is bleeding through

Pre-Chorus:
  Bm                               G5
Promise me we'll never leave this room,
  Bm                                  G5 D/F# E7sus4
a million years from now would be too soon.

Chorus:
The world is spinning turning day to night
and my thoughts are running at the speed of light
Got an empty feeling that I never want to fill
absolutely still
I waited longer 'cause I needed proof
that every door I shut is leading me to you
and there's a nervous feeling that I never want to kill
absolutely still

Bridge: D/F# G D5 A

Pre-Chorus:
  Bm                               G5
Promise me we'll never leave this room,
  Bm                                   G5 D/F# E7sus4
a million years from now would be too soon.

Chorus:
The world is spinning turning day to night
and my thoughts are running at the speed of light
Got an empty feeling that I never want to fill
absolutely still
I waited longer 'cause I needed proof
that every door I shut is leading me to you
and there's a nervous feeling that I never want to kill
absolutely still

Final Chorus:
I'll go anywhere you want tonight
'cause my head is spinning like a satellite
I got a restless feeling that I never want to fill
I'm absolutely still

Intro Fade out
Suggest correction
Give kudos to tab author, rate the tab!
1 2 3 4 5
comments
print report bad tab
1 comment total.
0 reply
Agile_Furball 10 Apr 25, 2010 03:13 AM

I think the intro/verse goes a little more like this:


e|-------------------------------------------------------------------|
B|-----2---3---3---2---2---3---3---2---2---3---3---2---2---3---3-----|
G|-------------------------------------------------------------------|
D|---0---0---0---0---0---0---0---0-----------------------------------|
A|-----------------------------------0---0---0---0---0---0---0---0---|
E|-------------------------------------------------------------------|

e|-------------------------------------------------------------------|
B|-----2---3---3---2---2---3---3-------2---3---3---2---2---3---3-----|
G|-2-------------------------------2---------------------------------|
D|-------------------------------------------------------------------|
A|---2---2---2---2---2---2---2---2-----------------------------------|
E|-----------------------------------3---3---3---3---3---3---3-------|


Other than that, it looks good to me :)

guest
You may want to rate the tab now too:
select rating
Wanna post a correction for this tab? Suggest correction