Oops, an error
Loading. Please wait.

Desperately Wanting Bass Tab

2,201 views 1 this week
1 commentread comment
1 2 3 4 5
accurate
x 4
add to favorites
launch autoscroll
font size
0
reset
guitar tuner
Tab Pro tools
  • play this tab
  • loop segment
  • change instrument
  • show fretboard
  • metronome
Autoscroll
slow
fast
+/-
esc
set tempo
stop
Contributor
Difficulty
intermediate
Better Than Ezra - 'Desperately Wanting'
From the album 'Friction Baby'
Tuning: EADG
tabbed by jjhand

I noticed this song didn't have a bass tab yet, so here you go. 
Please rate or comment. 

Bass Enters (0:34) 

Bass Riff 1 - play this 4x            Before Drums kick in:
G|-------------|------------|       |-------------|-------------|
D|-------------|------------|       |-------------|-------------|
A|-------------|------------|       |-------------|-------------|
E|-1---------0-|-3----------|       |-1---------0-|-3-------/13\|



Heavy Guitars come in (0:57) - Bass Riff 2
G|------------|------------|------------|------------|-----------|----------|
D|------------|------------|-3----------|------------|-----------|----------|
A|------------|------------|------------|------------|-----------|----------|
E|-1--------0-|-3----------|----------0-|-3----------|-1-------0-|-3--------|


G|------------|----------------|
D|------------|----------------|
A|------------|--------------7-|
E|-1--------0-|-3------8---7---|



Chorus - play 3x
G|-------------------------|----------------------------|
D|-------------------------|----------------------------|
A|-8--8-8-8\7--------------|------------------------5-7-|
E|-------------5--5-5-/7-5-|-3--3-3---5-7-8-8--8-8------|
"I remember runnin through the wet grass, falling a step behind"


chorus ending
G|-------------------------|-------------------------|
D|-------------------------|-------------------------|
A|-8--8-8-8\7--------------|-------------------------|
E|-------------5--5-5-/7-5-|-3--3-3----/8-8-8-8-8----|



Play Bass Riff 1 and Bass Riff 2 Again


Play Chorus


Bridge/Bass Solo (2:38)
G|--------------------------------|-17-17--17-17-16---------------------|
D|-/16---16-16--17-17-19-19-19-19-|-------------------19-19-17----16-17-|
A|--------------------------------|-------------------------------------|
E|--------------------------------|-------------------------------------|

G|---------------------------------|-----------------------------------|
D|-/16---16-16--------16--16-16-16-|----------17-----------------------|
A|--------------17-17-17-----------|-15-15-15----15-15------15-15------|
E|---------------------------------|-------------------15----------12\-|


Bridge Pt 2 - play 3x
G|-----------------------------|----------------------------|   -ending---|
D|-----------------------------|----------------------------|   ----------|
A|-5-5--5-5--0-0-5-5--5-5--0-0-|-3-3--3-3--0-0----------3/--|   ----------|
E|-----------------------------|---------------3-3--3-3-----|   -1-1-1----|




Bridge Jam - 7/4 time (7 beats per bar)
  play 2x
G|------------------------------------|
D|------------------------------------|
A|------3---3-/5-3-2------/5-3-2-3----|
E|-3-----------------3----------------|

G|------------------------------------|------------------------------------|
D|------------------------/5-3-2-3----|------------------------------------|
A|------3---3-/5-3-2------------------|------3---3-/5-3-2------/5-3-2-3----|
E|-3-----------------3----------------|-3-----------------3----------------|




Play Verse Again


Play Chorus Again Twice, with some ad-lib differences in repeat



Ending
G|------------------|-------------------------|
D|------------------|-------------------------|
A|------------------|-------------------------|
E|-1--------5-----3-|-(3)---------------------|




KEY
************************************

| /   slide up
| \   slide down
| h   hammer-on
| p   pull-off

************************************
comments
print report bad tab
1 comment total.
0 reply
cool_jeffzy wrote on January 30 2013, 08:44 pm

thanks men its a good reference..

I want to post or [tab]
guest
You may want to rate the tab now too:
select rating
Please do not post tabs as comments. Select "correction" instead!