Oops, an error
Loading. Please wait.

Extra Ordinary Bass Tab

183 views 1 this week
no commentswrite comment
1 2 3 4 5
please rate
add to favorites
launch autoscroll
font size
0
reset
guitar tuner
Tab Pro tools
  • play this tab
  • loop segment
  • change instrument
  • show fretboard
  • metronome
×
Best way to learn
"Extra Ordinary"
Autoscroll
slow
fast
+/-
esc
set tempo
stop
Contributor
--------------------------------------------------------------
                             Extra Ordinary - Better Than Ezra
--------------------------------------------------------------
Tabbed by: CliveBixby

Tuning: DADG

Some of the bass parts in this song are electronic sounds done by DJ Swamp,
but they can easily be played on the bass and are tabbed out below.

Intro
G|---------------------------------------------------------------------------|
D|---------------------------------------------------------------------------|
A|---------------------------------------------------------------------------|
D|--3-0---------------2/3-0-------------------------2/3-0--------------------|

"I got a little bit of
Verse 1
G|---------------------------------|
D|---------------------------------|
A|---------------------------------|  x4
D|-2/3-0---------------------------|
      hope"

Chorus 1
G|-----------------------|          G|---------|
D|-----------------------|          D|---------|
A|--5--5-----------------| x8 Then  A|---------|
D|----------4h5----------|          D|--3-0----|
    1  2  3 & 4
"Somebody push me through the

Verse 2
G|--------------|------------11/12--|           G|-----------|
D|--------------|------------------.|           D|-----------|
A|--------------|--5-3-5-----------.| x3  Then  A|-----------|
D|--3-0---------|-------------------|           D|--3-0------|
     door"

Chorus 2
G|-----------------------|          G|---------|
D|-----------------------|          D|---------|
A|--5--5-----------------| x8 Then  A|---------|  x2
D|----------4h5----------|          D|--3-0----|
    1  2  3 & 4

Bridge
G|------------|------------|-------------------|---------------|
D|------------|------------|---------------4/5-|---------------|
A|------------|------------|---3h5-3-5---------|--3h5-3-5------|
D|---3-0------|--2/3-0-----|-------------------|---------------|


G|-------------------|---------------|--------|
D|---------------4/5-|---------------|--------|
A|---3h5-3-5---------|--3h5-3-5------|--------|
D|-------------------|---------------|--3-0---|

Chorus 3 & 4
G|-----------------------|
D|-----------------------|
A|--5--5-----------------| x16  (cut the last one short by 1/2 beat)
D|----------4h5----------|
    1  2  3 & 4

Outro
G|----------------|-----------------------|----------------|--------------------|
D|----------------|--------4h5-4h5-4h5p4--|----------------|--------------------|
A|--5-5\--------3-|--5-5------------------|--5-5\--------3-|--5-5----2h3--2h3p2-|
D|-------4/5--5---|-----------------------|-------4/5--5---|--------------------|

G|----------------|----------------------|----------------|---------------------||
D|----------------|-------5--4h5-4h5p4---|----------------|---------------------||
A|--5-5\--------3-|--5-5---------------3-|--5-5\--------3-|--5-5\---2h3-5-3-5~--||
D|-------4/5--5---|----------------------|-------4/5--5---|---------------------||



| /  slide up
| \  slide down
| h  hammer-on
| p  pull-off
| ~  vibrato
| +  harmonic
| x  Mute note
===============================================================================
comments
We did not receive enough feedback on this tab! Please rate:
print report bad tab
1 2 3 4 5
I want to post or [tab]
guest
You may want to rate the tab now too:
select rating
Please do not post tabs as comments. Select "correction" instead!