Oops, an error
Loading. Please wait.

Extra Ordinary Tab

10,556 views 9 this week
no commentswrite comment
1 2 3 4 5
x 6
add to favorites
launch autoscroll
font size
0
reset
how to read this tab
guitar tuner
Autoscroll
slow
fast
+/-
esc
set tempo
stop
Help us to improve Ultimate-Guitar.com Take our survey!
×
Better than ezra, extra ordinary.
 Tabbed by Chris Baird, whitespider52@hotmail.com.
  
Okay, I heard this on the radio today and my friends and I loved it, this is my first tab as an insomniac (I stayed up all night to try to get it perfect, it's not 100% but I know it's damn close) so enjoy!

Standard tuning

p=pull off
b=bend(for those of you who don't know that means push the string up or pull it down on whatever fret  you're holding your note on and it will distort)
m=mute(some don't know this either, you can either pick the note with your palm resting on the string, or you can pick it and then slam your palm on string.  I prefer the first one for this song)
~=let it ring out

Intro:
E-----2p0---0----3-+-----2p0---0----3-+-----2p0---0--
B---3------3-3-----+---3------3-3-----+---3------3-3-
G------------------+------------------+--------------
D-0----------------+-0----------------+-0------------

verse 1:    I   got   a   lit- tle  bit of  hope
E-3-+---------------------------------------------
B---+----------------------0----3----0------------
G---+-----------------2------------------2--------
D---+-0m----0----4---------------------------4----

(note: the timing is the same but I stretched each riff out so I could fit the words)

                          Like a soap on a roap
E--------------2p0-----------0------------0----------
B-------------------------3-----3-------------3------
G----------------------------------------------------
D-0------0-------------------------------------------

  Sweeter than sour       gettin thinner by the hour
E--------------2p0-----------0------------0----------
B-------------------------3-----3-------------3m-----
G----------------------------------------------------
D-0------0-------------------------------------------

  Fallin   -   fast      and I'm runnin out of gas
E--------------2p0-----------0------------0----------
B------------------------3-----3-------------3------
G----------------------------------------------------
D-0-0---0-0------------------------------------------

  Muggin on your sister   smart as Bobby Fisher
E--------------2p0-----------0------------0----------
B-------------------------3-----3-------------3------
G----------------------------------------------------
D-0-----0--------------------------------------------

       Still  I   couldn't    get    arrested
E--------------2p0-----------0------------0----------
B-------------------------3-----3-------------3------
G----------------------------------------------------
D-0-----0--------------------------------------------

  Though I got more hooks than Madonna got looks
E--------------2p0-----------0------------0----------
B-------------------------3-----3-------------3------
G----------------------------------------------------
D-0-----0--------------------------------------------

  And    just   like   that    AC-DC      song
E--------------2p0-----------0------------0----------
B-------------------------3-----3-------------3------
G----------------------------------------------------
D-0-----0--------------------------------------------

  Come on baby, shake me all night long
E---0m-------------------------------------------
B---3m-------------------------------------------
G---2m-------------------------------------------
D------------------------------------------------

Chorus:

  All         I            wanna         do
E--------------2p0-----------0------------3----------
B-------3-----------------3-----3-------------3------
G----------------------------------------------------
D-0--------------------------------------------------

                                   Is     stay 
E--------------2p0-----------0------------0----------
B-------3-----------------3-----3-------------3------
G----------------------------------------------------
D-0--------------------------------------------------

  up          early       in     the     mornin
E--------------2p0-----------0------------3----------
B-------3-----------------3-----3-------------3------
G----------------------------------------------------
D-0--------------------------------------------------
                                                                                                            E--------------2p0-----------0------------0----------
B-------3-----------------3-----3-------------3------
G----------------------------------------------------
D-0--------------------------------------------------

and    All     I         gotta          say          E--------------2p0-----------0------------3----------
B-------3-----------------3-----3-------------3------
G----------------------------------------------------
D-0--------------------------------------------------

          yeah 
E--------------2p0-----------0------------0----------
B-------3-----------------3-----3-------------3------
G----------------------------------------------------
D-0--------------------------------------------------

 is    your    love's     extra    ordinary
E--------------2p0-----------0------------3----------
B-------3-----------------3-----3-------------3------
G----------------------------------------------------
D-0--------------------------------------------------

   You're    extra    ordinary    baby
E--------------2p0-----------0------------0----------
B-------3-----------------3-----3-------------3------
G----------------------------------------------------
D-0--------------------------------------------------

break

verse 2:
 some   bo  -   dy    push   me through the  door    
E-------------------------------------------------
B-----------------------0-----3----0--------------
G----------------2-----------------------2--------
D-0------4------------------------------------4---

            I    been   sleepin    on  the floor
E----------------------------------0--------------
B-----------------------------------------3-------
G-------------------------------------------------
D-0-----0-----------------------------------------

thirty-one flavors listen to the neighbors through the
E----------------------------------0--------------
B-----------------------------------------3-------
G-------------------------------------------------
D-0-----0-----------------------------------------

  wall       at    a     debutant        ball
E----------------------------------0--------------
B-----------------------------------------3-------
G-------------------------------------------------
D-0-----0-----------------------------------------

 Cook a lotta vista     got a Mona Lisa
E----------------------------------0--------------
B-----------------------------------------3-------
G-------------------------------------------------
D-0-----0-----------------------------------------

         so much   for   the   late   rent
E----------------------------------0--------------
B-----------------------------------------3-------
G-------------------------------------------------
D-0-----0-----------------------------------------

 Cause your money's spent   and it's cold inside
E----------------------------------0--------------
B-----------------------------------------3-------
G-------------------------------------------------
D-0-----0-----------------------------------------

 But just like that Bare Naked Ladies song
E----------------------------------0--------------
B-----------------------------------------3-------
G-------------------------------------------------
D-0-----0-----------------------------------------

 I'm hot like Wassabe when I'm next to your body
E---0m-------------------------------------------
B---3m-------------------------------------------
G---2m-------------------------------------------
D------------------------------------------------


Chorus

Bridge:

E-----222-222-2-1-0-1-------222-222-2-1-0-1-----
B-----333-333-3-3-3-3-------333-333-3-3-3-3-----
G-----222-222-2-2-2-2-------222-222-2-2-2-2-----
D-----000-000-0-0-0-0-------000-000-0-0-0-0-----

E-----222-222-2-1-0-1-------222-222-2-1-0-1-----
B-----333-333-3-3-3-3-------333-333-3-3-3-3-----
G-----222-222-2-2-2-2-------222-222-2-2-2-2-----
D-----000-000-0-0-0-0-------000-000-0-0-0-0-----

E--5-------7-------10-------7---------12b~------
B-----------------------------------------------
G-----------------------------------------------
D-----------------------------------------------

Chorus 2x

Intro riff 11x



there ya go.  any corrections, whitespider52@hotmail.com 
:: Ultimate Guitar Archive :: 
http://www.ultimate-guitar.com 



Suggest correction
comments
print report bad tab
guest
You may want to rate the tab now too:
select rating
Wanna post a correction for this tab? Suggest correction